Guitar Tabs for Jeene Bhi De

jeene bhi de
E|--------7---7/-9\-7/9--7--7-----------7---7/-9\-7/9--7--7-----
B|---5/7---------------------------5/7--------------------------
G|--------------------------------------------------------------
D|--------------------------------------------------------------
A|--------------------------------------------------------------
E|--------------------------------------------------------------


ilzaam na laga
E|--7--5-----------------------------------
B|--------8-----8---8/10\-8/10----8--7-----
G|-----------------------------------------
D|-----------------------------------------
A|-----------------------------------------
E|-----------------------------------------


ek bar toh...
E|--------7---7/-9\-7/9--7--7-----------7---7/-9\-7/9--7--7-----
B|---5/7---------------------------5/7--------------------------
G|--------------------------------------------------------------
D|--------------------------------------------------------------
A|--------------------------------------------------------------
E|--------------------------------------------------------------


koi hasin katha
E|--7--5-----------------------------------
B|--------8-----8---8/10\-8/10----8--7-----
G|-----------------------------------------
D|-----------------------------------------
A|-----------------------------------------
E|-----------------------------------------



warna koi
E|--------7---7/9-----7---7/9-----7--9---9/12\10/12----10-9--10----
B|---5/7-----------------------------------------------------------
G|-----------------------------------------------------------------
D|-----------------------------------------------------------------
A|-----------------------------------------------------------------
E|-----------------------------------------------------------------


chahe kisko...
E|--------7---7/9-----7---7/9-----7--9---9/12\10/12----10-9--10----
B|---5/7-----------------------------------------------------------
G|-----------------------------------------------------------------
D|-----------------------------------------------------------------
A|-----------------------------------------------------------------
E|-----------------------------------------------------------------



ae zindegi
E|--7--9---9/12----10-12----9--9---9/7-----5--5-----
B|--------------------------------------------------
G|--------------------------------------------------
D|--------------------------------------------------
A|--------------------------------------------------
E|--------------------------------------------------


kyun ishq hai
E|--9--7-----------------------------------
B|--------8-----8---8/12\10/12----8--7-----
G|-----------------------------------------
D|-----------------------------------------
A|-----------------------------------------
E|-----------------------------------------


khud se he kar k
E|--------7--7---7/9--7--5--7-----5--7-----------7--7---7/9--7--5---5/7--
B|---5/7------------------------------------5/7--------------------------
G|-----------------------------------------------------------------------
D|-----------------------------------------------------------------------
A|-----------------------------------------------------------------------
E|-----------------------------------------------------------------------

Ishq toh..
E|-----------7--7---7/9--7--5--7-----5--7-----------7--7---7/9--7--5---5/7--
B|------5/7------------------------------------5/7--------------------------
G|--------------------------------------------------------------------------
D|--------------------------------------------------------------------------
A|--------------------------------------------------------------------------
E|--------------------------------------------------------------------------


dil kya kare
E|--7--9--10----10/12----9-----5--7--9---9/10----7-----
B|-----------------------------------------------------
G|-----------------------------------------------------
D|-----------------------------------------------------
A|-----------------------------------------------------
E|-----------------------------------------------------


acha lage koi
E|--5--7---7/9-----9--10----9--7-----
B|-----------------------------------
G|-----------------------------------
D|-----------------------------------
A|-----------------------------------
E|-----------------------------------


Jhuta sahi
E|--7--9--10----10/12----9-----5--7--9---9/10----7-----
B|-----------------------------------------------------
G|-----------------------------------------------------
D|-----------------------------------------------------
A|-----------------------------------------------------
E|-----------------------------------------------------


sacha lage koi
E|--5--7---7/9-----7--------------------------------
B|--------------------8------8/10\-8/10----8--7-----
G|--------------------------------------------------
D|--------------------------------------------------
A|--------------------------------------------------
E|--------------------------------------------------
tabs and chords, guitar tabs, music contests, music covers, songsterr, reverbnation, renditions, tabulature, bollywood chords, ultimate guitar, yousician, guitar lessons, torrins, fender, gibson, acoustic guitar, electric guitar, youtube covers, gootar, guitar tuner, A-Z tabs, 911 tabs