Guitar Tabs for Jo Bhi Kasmein

Tabs for Song : Jo Bhi Kasmein

Jo Bhi Kasmein Khaayi Thi Humne
E|--------------------------------------------
B|--------1--0-----0--------------------------
G|-----2--------2-----2-----2--2--2--2--2-----
D|--2-----------------------------------------
A|--------------------------------------------
E|--------------------------------------------

Vaada Kiya Tha Jo Milke
E|--------------------------------------------
B|--------1--0-----0--------------0-----------
G|-----2--------2-----2-----2--2-----2--2-----
D|--2-----------------------------------------
A|--------------------------------------------
E|--------------------------------------------

Tune Hi Jeevan Mein Laaya Tha Mere Savera
E|--------------------------------------------------------
B|-----0--------0--------0--------0-----------------------
G|--2-----2--2-----2--2-----2--2-----2--0-----0-----------
D|-----------------------------------------3-----3--3-----
A|--------------------------------------------------------
E|--------------------------------------------------------

Kya Tumhe Yaad Hai
E|--------------------------
B|--1--0--0-----------------
G|-----------2-----2--2--2--
D|--------------------------
A|--------------------------
E|--------------------------

Kya Tumhe Yaad Hai
E|-----------------------------------
B|--1--0--0--------0-----------------
G|-----------2--2-----2--0--0--------
D|-----------------------------3-----
A|-----------------------------------
E|-----------------------------------

Kya Tumhe Yaad Hai
E|-----------------------------
B|--1--0---0h3-----------------
G|--------------2-----2--2-----
D|-----------------------------
A|-----------------------------
E|-----------------------------

Din Woh Bade Haseen The
E|-----------------------------------
B|--------1--0-----0-----------------
G|-----2--------2-----2--2--2--2-----
D|--2--------------------------------
A|-----------------------------------
E|-----------------------------------

Raatein Bhi Khush Naseeb Thi
E|--------------------------------------
B|--------1--0-----0--------------------
G|-----2--------2-----2--2--2--0--------
D|--3-----------------------------3-----
A|--------------------------------------
E|--------------------------------------

Tune Hi Jeevan Mein Laaya Tha Mere Savera
E|--------------------------------------------------------
B|-----0--------0--------0--------0-----------------------
G|--2-----2--2-----2--2-----2--2-----2--0-----0-----------
D|-----------------------------------------3-----3--3-----
A|--------------------------------------------------------
E|--------------------------------------------------------

Kya Tumhe Yaad Hai
E|--------------------------
B|--1--0--0-----------------
G|-----------2--2--2--2-----
D|--------------------------
A|--------------------------
E|--------------------------

Kya Tumhe Yaad Hai
E|-----------------------------------
B|--1--0--0--------0-----------------
G|-----------2--2-----2--0--0--------
D|-----------------------------3-----
A|-----------------------------------
E|-----------------------------------

Kya Tumhe Yaad Hai
E|--------------------------
B|--1--0---0h3--------------
G|--------------2--2--2-----
D|--------------------------
A|--------------------------
E|--------------------------

Jaage Jaage Rehte The
E|-----------------------------
B|-----------------------------
G|-----------0-----------------
D|--2--2--3-----3--2--2--2-----
A|-----------------------------
E|-----------------------------

Khoye Khoye Rehte The
E|-----------------------------
B|-----------------------------
G|-----------0-----------------
D|--2--2--3-----3--2--2--2-----
A|-----------------------------
E|-----------------------------

Karte The Pyaar Ki Baatein
E|--------------------------------------
B|-----------------------1--1--0--0-----
G|-----------0--------------------------
D|--2--2--3-----3--2--2-----------------
A|--------------------------------------
E|--------------------------------------

Kabhi Tanhaayi Mein 
E|-----------------------------
B|--0--0--1--3--1--0--0--0-----
G|-----------------------------
D|-----------------------------
A|-----------------------------
E|-----------------------------

Kabhi Purvaayi Mein
E|-----------------------------
B|--0--0--1--3--1--0--0--0-----
G|-----------------------------
D|-----------------------------
A|-----------------------------
E|-----------------------------

Hoti Thi Roz Mulaakaatein
E|-----------------------------------
B|--0--0--1--3--1--0--0--1--0--------
G|-----------------------------2-----
D|-----------------------------------
A|-----------------------------------
E|-----------------------------------

Teri In Baahon Mein 
E|-----------------------------
B|-----------------------------
G|-----------0-----------------
D|--2--2--3-----3--2--2--2-----
A|-----------------------------
E|-----------------------------

Teri Panahon Mein
E|-----------------------------
B|-----------------------------
G|-----------0-----------------
D|--2--2--3-----3--2--2--2-----
A|-----------------------------
E|-----------------------------

Maine Har Lamha Guzaara
E|--------------------------------------
B|-----------------------1--1--0--0-----
G|-----------0--------------------------
D|--2--2--3-----3--2--2-----------------
A|--------------------------------------
E|--------------------------------------

Tere Is Chehere Ko
E|-----------------------------
B|--0--0--1--3--1--0--0--0-----
G|-----------------------------
D|-----------------------------
A|-----------------------------
E|-----------------------------

Chand Sunhere Ko 
E|-----------------------------
B|--0--0--1--3--1--0--0--0-----
G|-----------------------------
D|-----------------------------
A|-----------------------------
E|-----------------------------

Maine To Jigar Mein Utaara
E|-----------------------------------
B|--0--0--1--3--1--0--0--1--0--------
G|-----------------------------2-----
D|-----------------------------------
A|-----------------------------------
E|-----------------------------------

Kitne Tere Karib Tha 
E|-----------------------------------
B|--------1--0-----0-----------------
G|-----2--------2-----2--2--2--2-----
D|--2--------------------------------
A|-----------------------------------
E|-----------------------------------

Main To Tera Naseeb Tha
E|--------------------------------------
B|--------1--0-----0--------------------
G|-----2--------2-----2--2--2--0--------
D|--3-----------------------------3-----
A|--------------------------------------
E|--------------------------------------

Hoton Pe Rehta Tha Har Waqt Bas Naam Tera
E|--------------------------------------------------------
B|-----0--------0--------0--------0-----------------------
G|--2-----2--2-----2--2-----2--2-----2--0-----0-----------
D|-----------------------------------------3-----3--3-----
A|--------------------------------------------------------
E|--------------------------------------------------------

Kya Tumhe Yaad Hai
E|--------------------------
B|--1--0--0-----------------
G|-----------2--2--2--2-----
D|--------------------------
A|--------------------------
E|--------------------------

Kya Tumhe Yaad Hai
E|-----------------------------------
B|--1--0--0--------0-----------------
G|-----------2--2-----2--0--0--------
D|-----------------------------3-----
A|-----------------------------------
E|-----------------------------------

Kya Tumhe Yaad Hai
E|--------------------------
B|--1--0---0h3--------------
G|--------------2--2--2-----
D|--------------------------
A|--------------------------
E|--------------------------
tabs and chords, guitar tabs, music transcription, music technology, deep learning, music information retrieval, transcribe into tabs & chords, chordify, music renditions, songsterr, reverbnation, tabulature, bollywood chords, ultimate guitar, yousician, guitar lessons, acoustic guitar, electric guitar, guitar tuner, 911 tabs