Guitar Tabs for Jo Bhi Main - Rockstar Tabs

Job Bhi Main - Rockstar tabs

Intro
E|--------0-----------------------
B|--------------3-----------------
G|--------------------------------
D|-----------5------4h-5h-7p4-----
A|-----------------------------5--
E|--0--0--------------------------

E|--------0-----------------------
B|--------------3-----------------
G|--------------------------------
D|-----------5------4h-5h-7p4-----
A|-----------------------------5--
E|--0--0--------------------------

E|--------0-----------------------
B|--------------3-----------------
G|--------------------------4-----
D|-----------5------4h-5h7-----4--
A|--------------------------------
E|--0--0--------------------------

E|--------0-----------------------
B|--------------3-----------------
G|--------------------------4-----
D|-----------5------4h-5h7-----4--
A|--------------------------------
E|--0--0--------------------------

Jo Bhi Main  kehna Chahu Barbaad Kare Alfaaz mere
E|-----------------------------------------------------------
B|--3--3--0-----3--3--3--0-----3--3--3--3--2-----------------
G|--------------------------------------------2--2--2--4--4--
D|-----------------------------------------------------------
A|-----------------------------------------------------------
E|-----------------------------------------------------------

O Ye Ye, Ye Ye Ye
E|--------------3--2--0-----3--2--0--
B|--3--3--5--------------------------
G|-----------------------------------
D|-----------------------------------
A|-----------------------------------
E|-----------------------------------
tabs and chords, guitar tabs, music transcription, music technology, deep learning, music information retrieval, transcribe into tabs & chords, chordify, music renditions, songsterr, reverbnation, tabulature, bollywood chords, ultimate guitar, yousician, guitar lessons, acoustic guitar, electric guitar, guitar tuner, 911 tabs