Guitar Tabs for Tu Jo Mila

(/) Slide Up  (\) Slide Down  (h) Hammer On  (p) Pull Off  (b) Bend (r) Release (v) Vibrato (x) Muted

Tabs for Song : 
E|-----------------------3----------------------------------
B|--------4--3--4--6--------4--6--3----------------------
G|--3-----------------------------------3------------------
D|---------------------------------------------------
A|---------------------------------------------------
E|---------------------------------------------------

E|--------------------3--4-----------------------------
B|-----4--3--4--6-----------4--6--3------------------
G|--3-----------------------------------3-------------
D|---------------------------------------------------
A|---------------------------------------------------
E|---------------------------------------------------



Aashiyaana mera
E|-----------------3--------------------
B|--4--3--4--6--------6--3--------------
G|--------------------------------3--3--
D|--------------------------------------
A|--------------------------------------
E|--------------------------------------


Saath Tere hai na
E|-----------------3-----------------------
B|--4--3--4--6--------6--3-----------------
G|--------------------------------3--3-----
D|-----------------------------------------
A|-----------------------------------------
E|-----------------------------------------


*same as above*
Aab-o-danna mera 
saath tere hai na


Dhoondte tera khuda mujhko rab mila
E|--------------------------------------------------
B|--------------------------------------3--3--4-----
G|--5--3-----------5--3--------5--5-----------------
D|-----------6--6-----------6-----------------------
A|--------------------------------------------------
E|--------------------------------------------------



Tu jo mila lo ho gaya mai kabil
E|--3-----------4-----3--3--------------------------------------
B|-----6--4-----------------6--6--4--4--3--3--------3---------
G|--------------------------------------------------5------5--3--
D|---------------------------------------------------
A|---------------------------------------------------
E|---------------------------------------------------


Tu jo mila to ho gaya sab hasil
E|--------4--3--------3-----------3--3---------------------------------
B|-----------------6--------6--4-----------6--6--4--4--3--3------3--
G|--3------------------------------------------------------------5------
D|---------------------------------------------------
A|---------------------------------------------------
E|---------------------------------------------------


Mushqil sahi Aasaan hui manzil
E|--3--------------------3--3-----------------------------------
B|-----6--4--------4-----------6--6--4--4--3--3------3---4--
G|----------------------------------------------------5----------
D|---------------------------------------------------
A|---------------------------------------------------
E|---------------------------------------------------


Kynki tu dhadkan mai dil
E|--------------------------------------------
B|--4--6--3-----4--------3--3--4--------------
G|--------------------------------------------
D|--------------------------------------------
A|--------------------------------------------
E|--------------------------------------------
B|--
E|--
B|--
G|--
D|--
A|--
E|--

Song lyrics here 
E|--
B|--
G|--
D|--
A|--
E|--

Use manual mode to free up cursor. Paste any tab in acousterr tab maker and we'll play it !!!
tabs and chords, guitar tabs, music transcription, music technology, deep learning, music information retrieval, transcribe into tabs & chords, chordify, music renditions, songsterr, reverbnation, tabulature, bollywood chords, ultimate guitar, yousician, guitar lessons, acoustic guitar, electric guitar, guitar tuner, 911 tabs