Guitar Tabs for Jkfdf

ewlwjfwkjfkjnrkeg lywwwfefrrerics here
E|--------------
B|--------------
G|--6-----4-----
D|-----11-------
A|--------------
E|-----------20-

E|-----------
B|-----------
G|--------6--
D|-----------
A|--10-10----
E|-----------

E|-----------------9-----------------
B|-----------------------------------
G|--------------14----9--------------
D|-----------------------14----13-15-
A|--8--15----11-------------4--------
E|--------13-------------------------

E|--nkmkrlrrelkrmrr------------
B|--------------
G|--------------
D|-----10-------
A|--4-----10----
E|-----------12-

Paste any tab in acousterr's tab maker and we'll play it !!!
Now supports capo and sound effects for vibrato/pull-off/hammer/bends/mutes etc !!! Checkout help section
tabs and chords, guitar tabs, music transcription, music technology, deep learning, music information retrieval, transcribe into tabs & chords, chordify, music renditions, songsterr, reverbnation, tabulature, bollywood chords, ultimate guitar, yousician, guitar lessons, acoustic guitar, electric guitar, guitar tuner, 911 tabs