Guitar Tabs for Soch Nsake

(/) Slide Up  (\) Slide Down  (h) Hammer On  (p) Pull Off  (b) Bend (r) Release (v) Vibrato (x) Muted

Tabs for Song : 

Song lyrics here
E|--4--5--4--0--0-----------0--0--0--4--5--4--0--0-----------0--0--0--0--------0--------------x-----
B|-----------------3--2--3--------------------------3--2--3--------------0--2-----2--0--0--0--x-----
G|--------------------------------------------------------------------------------------------x--2--
D|--------------------------------------------------------------------------------------------x-----
A|--------------------------------------------------------------------------------------------x-----
E|--------------------------------------------------------------------------------------------x-----

E|--4--4--5--5--5--4--7--5--5--0--2--0--2--5--2--0--------2--0--0--x-----
B|--------------------------------------------------2--0-----------x-----
G|-----------------------------------------------------------------x--2--
D|-----------------------------------------------------------------x-----
A|-----------------------------------------------------------------x-----
E|-----------------------------------------------------------------x-----



E|--0--0---9--7--9--5--5--5--4--5--0--0--9--7--9--5--5--7--5--5-x-----
B|--------------------------------------------------------------x-----
G|--------------------------------------------------------------x--2--
D|--------------------------------------------------------------x-----
A|--------------------------------------------------------------x-----
E|--------------------------------------------------------------x-----

E|--5--4--4--5--4--2--2--2--4--2--1--1--1--2--4--2--2-----2--0--0--x--
B|-----------------------------------------------------2-----------x--
G|-----------------------------------------------------------------x--
D|-----------------------------------------------------------------x--
A|-----------------------------------------------------------------x--
E|-----------------------------------------------------------------x--

E|--9--12-9--7--7--5--4--5--5--9--9--12-9--7--7--5--4--7--x-----
B|--------------------------------------------------------x-----
G|--------------------------------------------------------x--2--
D|--------------------------------------------------------x-----
A|--------------------------------------------------------x-----
E|--------------------------------------------------------x-----



Song lyrics here

Paste any tab in acousterr's tab maker and we'll play it !!!
Now supports capo and sound effects for vibrato/pull-off/hammer/bends/mutes etc !!! Checkout help section
tabs and chords, guitar tabs, music transcription, music technology, deep learning, music information retrieval, transcribe into tabs & chords, chordify, music renditions, songsterr, reverbnation, tabulature, bollywood chords, ultimate guitar, yousician, guitar lessons, acoustic guitar, electric guitar, guitar tuner, 911 tabs