Guitar Tabs for Jeene Bhi De Duniya Hume - Arijit Singh Tabs

Jeene bhi de duniya hume Arijit Singh - tabs for intro melody and solo

Intro (Am Capo on 2nd fret)

E|--------2--------------
B|-----------2-----3-----
G|-----------------------
D|-----4-----------------
A|--2--------------------
E|-----------------------

E|--------2--------------
B|-----------2-----3-----
G|-----------------------
D|-----4-----------------
A|--2--------------------
E|-----------------------


Jeene bhi de,Dunia Humein
E|--------------------------------------------
B|--------------------------------------------
G|-----4---4/6--4--4--------4---4/6--4--4-----
D|--4--------------------4--------------------
A|--------------------------------------------
E|--------------------------------------------

Ilzaam na lagaa
E|--------------------------
B|--3-----------------------
G|-----4--2--0--2--0--------
D|--------------------4-----
A|--------------------------
E|--------------------------


Ik baar toh,karte hain sab,
E|-----------------------------------------
B|-----------------------------------------
G|-----4---4/6--4--4--------4---4/6--4--4--
D|--4--------------------4-----------------
A|-----------------------------------------
E|-----------------------------------------


Koi haseen khata
E|-----------------------
B|--3--------------------
G|-----4--2--0--2--0-----
D|--------------------4--
A|-----------------------
E|-----------------------

Varna koi kaise bhala
E|--------------------------------------------
B|--------------------------5--5--3--3--2--3--
G|-----4--4--6--6--4--6--6--------------------
D|--4-----------------------------------------
A|--------------------------------------------
E|--------------------------------------------

Chahe kisi ko bepanah
E|--------------------------------------------
B|--------------------------5--5--3--3--2--3--
G|-----4--4--6--6--4--6--6--------------------
D|--4-----------------------------------------
A|--------------------------------------------
E|--------------------------------------------

Aey zindagi,Tu hi bata,
E|-----------------------------------
B|--------3--5--3--5--3--2-----------
G|--4--6--------------------4--2--2--
D|-----------------------------------
A|-----------------------------------
E|-----------------------------------


Kyun ishq hai gunah
E|-----------------------
B|-----------------------
G|--7--4-----------------
D|--------7--5--7--5--4--
A|-----------------------
E|-----------------------


Solo
E|-----7--9--10-9--10----9--7--9--7--9-----7--5--7--5--7-----5--3-----
B|--7--------------------------------------------------------------7--
G|--------------------------------------------------------------------
D|--------------------------------------------------------------------
A|--------------------------------------------------------------------
E|--------------------------------------------------------------------
tabs and chords, guitar tabs, music transcription, music technology, deep learning, music information retrieval, transcribe into tabs & chords, chordify, music renditions, songsterr, reverbnation, tabulature, bollywood chords, ultimate guitar, yousician, guitar lessons, acoustic guitar, electric guitar, guitar tuner, 911 tabs