Guitar Tabs for Khamoshiyan - Arijit Singh Tabs

Tabs for Song : Khamoshiyan

khamoshiyan awaaz hai
E|--------------------------------------
B|--------------------------------------
G|-----0--2--3--2--------0--2--3--2-----
D|--3-----------------3-----------------
A|--------------------------------------
E|--------------------------------------

tum sunne to aao kabhi
E|--------------------------------------
B|-----------------------1--------------
G|-----0--2--2--2--2--3-----3--2--0-----
D|--3-----------------------------------
A|--------------------------------------
E|--------------------------------------

chukar tumhe khill jaengi
E|--------------------------------------------------
B|-----------------3--2--3--------------------------
G|-----0--2--3--2-----------2--0-----0--2--3--2-----
D|--3-----------------------------3-----------------
A|--------------------------------------------------
E|--------------------------------------------------

ghar inko bulao kabhi
E|--------------------------------------
B|-----------------------1--------------
G|-----0--2--2--2--2--3-----3--2--0-----
D|--3-----------------------------------
A|--------------------------------------
E|--------------------------------------

bekaraar hai baat karne ko
E|--------------------------------------------
B|-----1-----1---1h3--------1-----1---1h3-----
G|--3-----3--------------3-----3--------------
D|--------------------------------------------
A|--------------------------------------------
E|--------------------------------------------

kahne do inko zara
E|--1--0-----1--0-----------0-----
B|--------3--------3--2--3--------
G|--------------------------------
D|--------------------------------
A|--------------------------------
E|--------------------------------

khamoshiyan
E|--1--0--------------------
B|--------3--3-----1--------
G|--------------------3-----
D|--------------------------
A|--------------------------
E|--------------------------

teri meri khamoshiya
E|-----------------------------------
B|-----1-----------------------------
G|--3-----3--2--0--------0---0h2-----
D|-----------------2--3--------------
A|-----------------------------------
E|-----------------------------------

khamoshhiyan
E|--1--0--------------------
B|--------3--3-----1--------
G|--------------------3-----
D|--------------------------
A|--------------------------
E|--------------------------

lipti hui khamoshiyan
E|-----------------------------------
B|-----1-----------------------------
G|--3-----3--2--0--------0---0h2-----
D|-----------------2--3--------------
A|-----------------------------------
E|-----------------------------------

kya us gali mein kabhi tera aana hua
E|--1--1--0-----------------1--1--0-----------------------
B|-----------3--2--3-----------------3--2--3--1--1--------
G|-----------------------2--------------------------3-----
D|--------------------------------------------------------
A|--------------------------------------------------------
E|--------------------------------------------------------

jahan se zamaane ko guzre ko zamana hua
E|-----0--0--------------------0--0-----------------------
B|-----------3--1--0--1--------------3--1--0--1-----------
G|--0-----------------------0--------------------3--2-----
D|--------------------------------------------------------
A|--------------------------------------------------------
E|--------------------------------------------------------

mera samaye to wahi pe hai thehra hua
E|--1--1--0-----------------1--1--0-----------------------
B|-----------3--2--3-----------------3--2--3--1--1--------
G|-----------------------2--------------------------3-----
D|--------------------------------------------------------
A|--------------------------------------------------------
E|--------------------------------------------------------

batau tumhe kya mere sath kya kya hua
E|-----0--0--------------------0--0-----------------------
B|-----------3--1--0--1--------------3--1--0--1-----------
G|--0-----------------------0--------------------3--2-----
D|--------------------------------------------------------
A|--------------------------------------------------------
E|--------------------------------------------------------

khamoshiyan ek saaz hai
E|--------------------------------------
B|--------------------------------------
G|-----0--2--3--2--------0--2--3--2-----
D|--3-----------------3-----------------
A|--------------------------------------
E|--------------------------------------

tum dhun koi laao zara
E|--------------------------------------
B|-----------------------1--------------
G|-----0--2--2--2--2--3-----3--2--0-----
D|--3-----------------------------------
A|--------------------------------------
E|--------------------------------------

khamoshiyan alfaaz hai

E|--------------------------------------------------
B|-----------------3--2--3--------------------------
G|-----0--2--3--2-----------2--0-----0--2--3--2-----
D|--3-----------------------------3-----------------
A|--------------------------------------------------
E|--------------------------------------------------

kabhi aa gunguna le zara..
E|--------------------------------------
B|-----------------------1--------------
G|-----0--2--2--2--2--3-----3--2--0-----
D|--3-----------------------------------
A|--------------------------------------
E|--------------------------------------

bekarar hai baat karne ko
E|--------------------------------------------
B|-----1-----1---1h3--------1-----1---1h3-----
G|--3-----3--------------3-----3--------------
D|--------------------------------------------
A|--------------------------------------------
E|--------------------------------------------

kahne do inko zaraa..
E|--1--0-----1--0-----------0--
B|--------3--------3--2--3-----
G|-----------------------------
D|-----------------------------
A|-----------------------------
E|-----------------------------

khamoshiyan
E|--1--0--------------------
B|--------3--3-----1--------
G|--------------------3-----
D|--------------------------
A|--------------------------
E|--------------------------

teri meri khamoshiya
E|-----------------------------------
B|-----1-----------------------------
G|--3-----3--2--0--------0---0h2-----
D|-----------------2--3--------------
A|-----------------------------------
E|-----------------------------------

khamoshhiyan
E|--1--0--------------------
B|--------3--3-----1--------
G|--------------------3-----
D|--------------------------
A|--------------------------
E|--------------------------

lipti hui khamoshiyan
E|-----------------------------------
B|-----1-----------------------------
G|--3-----3--2--0--------0---0h2-----
D|-----------------2--3--------------
A|-----------------------------------
E|-----------------------------------


tabs and chords, guitar tabs, music contests, music covers, songsterr, reverbnation, renditions, tabulature, bollywood chords, ultimate guitar, yousician, guitar lessons, torrins, fender, gibson, acoustic guitar, electric guitar, youtube covers, gootar, guitar tuner, A-Z tabs, 911 tabs