Guitar Tabs for Sanam Re - Arijit Singh

(/) Slide Up  (\) Slide Down  (h) Hammer On  (p) Pull Off  (b) Bend (r) Release (v) Vibrato (x) Muted

Tabs for Song :Sanam Re

Song lyrics here : Intro
E|--------------------1-----------------------1-----
B|--3-----3-----1--------4--3-----3-----1--------4--
G|-----0-----0-----0-----------0-----0-----0--------
D|--------------------------------------------------
A|--------------------------------------------------
E|--------------------------------------------------

Song lyrics here : O Ho oooo .. O h oooo
E|--3--------3-----5--6--5---6\8--6--5------5p6--3--1-----3--------3-----5--6--5---6\8--6--5------5p6-----
B|--------3-----------------------------------------------------3--------------------------------------8--
G|--------------------------------------------------------------------------------------------------------
D|--------------------------------------------------------------------------------------------------------
A|--------------------------------------------------------------------------------------------------------
E|--------------------------------------------------------------------------------------------------------


Song Lyrics Here : Bheegi Bheegi Sarko Pe Main Tera Intezaar Karu, Dheere Dheere Dil ki Zameen Ko Tere Hi Naam Karun
E|-----6--5--6--5-----------------------------------5-----6--5--------------------6--5--6--5-----------------------------------5-----6--5-----------
B|--8--------------8--6---6\8--8--------8--6--6--8-----6--------8--8--8--------8--------------8--6---6\8--8--------8--6--6--8-----6--------8--8--8--
G|--------------------------------------------------------------------------------------------------------------------------------------------------
D|--------------------------------------------------------------------------------------------------------------------------------------------------
A|--------------------------------------------------------------------------------------------------------------------------------------------------
E|--------------------------------------------------------------------------------------------------------------------------------------------------


Khud Ko Main Yu Kho Dun , Ki Phir Na Kabhi Pa u
E|--------10-8--10-8--------------------13-13p11-11h13-10/8---8\10-10-8---6/5-----
B|-----8--------------11-10-11\13-13-13----------------------------------------8--
G|--------------------------------------------------------------------------------
D|--------------------------------------------------------------------------------
A|--------------------------------------------------------------------------------
E|--------------------------------------------------------------------------------


Haule Haule Zindagi Ko , Ab Tere Hawale Karu
E|--------6--5--6--5--------------------------------5-----6--5-----------
B|-----8--------------8---6\8--8--------8--6--6--8-----6--------8--8--8--
G|-----------------------------------------------------------------------
D|-----------------------------------------------------------------------
A|-----------------------------------------------------------------------
E|-----------------------------------------------------------------------


Sanam Re Sanam Re Tu Mera sanam Hua Re (X2)
E|--------------------------6--6--6--5-----------------5-----6--5-----------------------------------8--8--8--5--------------
B|--------6--6--6--8--------------------------6--6--8-----6--------8--8--8--------6--6--6--8--------------------------8--6--
G|--------------------------------------------------------------------------------------------------------------------------
D|--------------------------------------------------------------------------------------------------------------------------
A|--------------------------------------------------------------------------------------------------------------------------
E|--------------------------------------------------------------------------------------------------------------------------



E|--------10-10-8--8--6--6---6h8-----
B|-----8--------------------------8--
G|-----------------------------------
D|-----------------------------------
A|-----------------------------------
E|-----------------------------------


Karam Re Karam Re Tera Mujhpe Karam Hua Re
E|-----------------------6--6--6--5-----------------5-----6--5-----------
B|-----6--6--6--8--------------------------6--6--8-----6--------8--8--8--
G|-----------------------------------------------------------------------
D|-----------------------------------------------------------------------
A|-----------------------------------------------------------------------
E|-----------------------------------------------------------------------


Paste any tab in acousterr's tab maker and we'll play it !!!
Now supports capo and sound effects for vibrato/pull-off/hammer/bends/mutes etc !!! Checkout help section
tabs and chords, guitar tabs, music transcription, music technology, deep learning, music information retrieval, transcribe into tabs & chords, chordify, music renditions, songsterr, reverbnation, tabulature, bollywood chords, ultimate guitar, yousician, guitar lessons, acoustic guitar, electric guitar, guitar tuner, 911 tabs