Guitar Tabs for Jeene Bhi De Duniya Hame - Yasser Desai Tabs

(/) Slide Up  (\) Slide Down  (h) Hammer On  (p) Pull Off  (b) Bend (r) Release (v) Vibrato

Tabs for Song : Jeene Bhi De Duniya Hame

Jeene bhi de
E|--------------------
B|-----10-10/12-10-10-
G|--9-----------------
D|--------------------
A|--------------------
E|--------------------

Duniya humme
E|--------------------
B|-----10-10/12-10-10-
G|--9-----------------
D|--------------------
A|--------------------
E|--------------------

Ilzaam na laga
E|--------------------------
B|--12-10-------------------
G|--------12-10-10-12-10-9--
D|--------------------------
A|--------------------------
E|--------------------------

Ek baar to karte hai sab Koi haseen khata (Same As Part 1)

Warna koi kaise bhala
E|--------------------10-8--7--8--
B|-----10-12-10-12----------------
G|--9--------------9--------------
D|--------------------------------
A|--------------------------------
E|--------------------------------

Chahe kisi ko bepanah
E|--------------------10-8--7--8--
B|-----10-12-10-12----------------
G|--9--------------9--------------
D|--------------------------------
A|--------------------------------
E|--------------------------------

Aye zindagi tuhi bata
E|-----7--8--10-8--10-8--7--------------
B|--10----------------------10-8--8--8--
G|--------------------------------------
D|--------------------------------------
A|--------------------------------------
E|--------------------------------------

Kyun ishq hai gunaah
E|--7-----------------------
B|-----10-8-----------------
G|-----------10-10-12-10-9--
D|--------------------------
A|--------------------------
E|--------------------------

Jeene bhi de duniya humme,
Ilzaam na laga(Repeat).
tabs and chords, guitar tabs, music transcription, music technology, deep learning, music information retrieval, transcribe into tabs & chords, chordify, music renditions, songsterr, reverbnation, tabulature, bollywood chords, ultimate guitar, yousician, guitar lessons, acoustic guitar, electric guitar, guitar tuner, 911 tabs