Guitar Tabs for Jalur Gemilang

(/) Slide Up  (\) Slide Down  (h) Hammer On  (p) Pull Off  (b) Bend (r) Release (v) Vibrato (x) Muted

Tabs for Song : 

Song lyrics here
E|-----------------------------------------------------------
B|-----------------------------------------------------------
G|--6-----6--7--9-----6---6\7-----7--9--11-7------------7\9--
D|-----------------------------------------------------------
A|------------------------------------------------5\7--------
E|-----------------------------------------------------------

E|--------------------------------------------------------------------------
B|--------------------------------------------------------------------------
G|--9--9--7--6--6--------7--6-----------9--9--7--6--6-----7--9--7--6--------
D|--------------------9--------9--7-----------------------------------9--9--
A|--------------------------------------------------------------------------
E|--------------------------------------------------------------------------

E|--------------------------------------------------------------------------------
B|-----------7------------------------------------------------------------7b7-----
G|--6--7--9--------------6--7--9--------7---6p7--6--------------6--7--9--------9--
D|--------------9-----9-----------7-----------------9--9--9-----------------------
A|--------------------------------------------------------------------------------
E|--------------------------------------------------------------------------------

Song lyrics here
E|-----------------------------------------------------------------
B|-----------------------------------------------------------------
G|--9--9--7--6--6-----7--6-----------9--9--7--6--6--7--9--7--6-----
D|-----------------9--------9--7--------------------------------9--
A|-----------------------------------------------------------------
E|-----------------------------------------------------------------

E|--------------------------------------------------------------------------
B|-----------7--7-----------------------------------------------------------
G|--6--7--9-----------------6--7--9--9--------7--6--------6--7--------------
D|-----------------9-----9--------------7-----------9--9--------9--6--9--7--
A|--------------------------------------------------------------------------
E|--------------------------------------------------------------------------

E|-----------------------------------------------------------------------------
B|--10-10-9-----------9--10-9--------------------------------------------7-----
G|-----------11----11----------11-9------7\9--9---7p9--6------4\7--6--7-----9--
D|-----------------------------------------------------------------------------
A|-----------------------------------------------------------------------------
E|-----------------------------------------------------------------------------

E|-----------------------------------------------------------------------
B|--10-10-9-----------9--10-9------------7\10-9--10-------9--10-10\12-12-
G|-----------11----11----------11-9--------------------11----------------
D|-----------------------------------------------------------------------
A|-----------------------------------------------------------------------
E|-----------------------------------------------------------------------

E|--------9-----9--9--9-----12-10-12-10----9--------------------------------9--10-9--10-9--------
B|--------------------------------------------12----------12----12-12-12-------------------12-10-
G|---7\9---------------------------------------------7\9-----------------------------------------
D|-----------------------------------------------------------------------------------------------
A|-----------------------------------------------------------------------------------------------
E|-----------------------------------------------------------------------------------------------

E|-----------------------------9-----------------------------------------
B|-----------9--10-----7\10-12----------------12-10-9--------9--10-------
G|---9\11-11--------------------------9\11-11-------------11-------------
D|-----------------------------------------------------------------------
A|-----------------------------------------------------------------------
E|-----------------------------------------------------------------------

E|-----------------------------------------------------------------
B|-----------7--------7--10-9-----9--9--9--7--9--10----------10-10-
G|--6--7--9--------9------------------------------------6\9--------
D|-----------------------------------------------------------------
A|-----------------------------------------------------------------
E|-----------------------------------------------------------------

Paste any tab in acousterr's tab maker and we'll play it !!!
Now supports capo and sound effects for vibrato/pull-off/hammer/bends/mutes etc !!! Checkout help section
tabs and chords, guitar tabs, music transcription, music technology, deep learning, music information retrieval, transcribe into tabs & chords, chordify, music renditions, songsterr, reverbnation, tabulature, bollywood chords, ultimate guitar, yousician, guitar lessons, acoustic guitar, electric guitar, guitar tuner, 911 tabs