Guitar Tabs for J

(/) Slide Up  (\) Slide Down  (h) Hammer On  (p) Pull Off  (b) Bend (r) Release (v) Vibrato (x) Muted

Tabs & Chords
BPM : 110.0
Check Track 2 for Chord Positions 

             Cm             A#                G#          Cm          C           G           
E|-----------3--3-----------------------------------------------3-----8-----8--8--20----------
B|--------------------6-----6--4--6-----3-----3--3--3-----------------------------------3--3--
G|--5--5--5-----------------------------------------------3--------------------------0--------
D|--------------------------------------------------------------------------------------------
A|--------------------------------------------------------------------------------------------
E|--------------------------------------------------------------------------------------------

                Cm                         G#                            A#                Gm 
E|--------------------------------------------------------------------------------------------
B|--3-----3--0-----------------------------------------------3--0-----------------------6-----
G|--------------5-----5--5-----5-----0--0--5-----5--5--5-----------5--5--3-----3--3--------0--
D|--------------------------------------------------------------------------------------------
A|--------------------------------------------------------------------------------------------
E|--------------------------------------------------------------------------------------------

                G              C              Cm G#                      A#          G     C  
E|--------------------------------------------------------------------------------------------
B|-----3--3--3--3-----3--0-----------------------------------------0--------------------------
G|-----------------------------5--5--5--5-----5--------5--5-----6-----5--3-----0-----0-----0--
D|-----------------------------------------------6--------------------------------------3-----
A|--------------------------------------------------------------------------------------------
E|--------------------------------------------------------------------------------------------

                   G#       Cm                   
E|--3-----------------------8--8-----------------
B|-----------------------------------------------
G|-----------0--------0-----------------------0--
D|--------6--------6-----------------4-----6-----
A|-----------------------------------------------
E|-----------------------------------------------

Guitar Tabs for J






             Cm             A#                G#          Cm          C           G           
E|-----------3--------------1-----------------4-----------3-----------0-----------3-----------
B|-----------4--------------3-----------------4-----------4-----------1-----------3-----------
G|-----------5--------------3-----------------5-----------5-----------0-----------4-----------
D|-----------5--------------3-----------------6-----------5-----------2-----------5-----------
A|-----------3--------------1-----------------6-----------3-----------3-----------5-----------
E|--------------------------------------------4-----------------------------------3-----------

                Cm                         G#                            A#                Gm 
E|--------------3--------------------------4-----------------------------1-----------------3--
B|--------------4--------------------------4-----------------------------3-----------------3--
G|--------------5--------------------------5-----------------------------3-----------------3--
D|--------------5--------------------------6-----------------------------3-----------------5--
A|--------------3--------------------------6-----------------------------1-----------------5--
E|-----------------------------------------4-----------------------------------------------3--

                G              C              Cm G#                      A#          G     C  
E|--------------3--------------0--------------3--4-----------------------1-----------3-----0--
B|--------------3--------------1--------------4--4-----------------------3-----------3-----1--
G|--------------4--------------0--------------5--5-----------------------3-----------4-----0--
D|--------------5--------------2--------------5--6-----------------------3-----------5-----2--
A|--------------5--------------3--------------3--6-----------------------1-----------5-----3--
E|--------------3--------------------------------4-----------------------------------3--------

                   G#       Cm                   
E|-----------------4--------3--------------------
B|-----------------4--------4--------------------
G|-----------------5--------5--------------------
D|-----------------6--------5--------------------
A|-----------------6--------3--------------------
E|-----------------4-----------------------------

tabs and chords, guitar tabs, music transcription, music technology, deep learning, music information retrieval, transcribe into tabs & chords, chordify, music renditions, songsterr, reverbnation, tabulature, bollywood chords, ultimate guitar, yousician, guitar lessons, acoustic guitar, electric guitar, guitar tuner, 911 tabs