Guitar Tabs for Incredibles Theme For Guitar

(/) Slide Up  (\) Slide Down  (h) Hammer On  (p) Pull Off  (b) Bend (r) Release (v) Vibrato (x) Muted

Tabs for Song : 

Song lyrics here
E|-----3--8--6--7-----------------2-----------------------------------------------
B|--5--------------------------3--4-----------------------------------------------
G|--------------------------5-----4-----------------------------------------------
D|-----------------------5--------------------------------------------------------
A|--------------------7-----------------------------------------------------------
E|-----------------------------------------0--2--3--0--2--3-----0--2--3--0--2--3--

E|-----0--3--7--3--6--------------------------0--3--6--3--5-----------------------
B|--0--------------------------------------0--------------------------------------
G|-----------------------------0--------------------------------------0-----------
D|-----------------------------------7--------------------------------------7-----
A|-----------------------7--------------------------------------7-----------------
E|--------------------------------------------------------------------------------

E|-----0--3--5-----2--3--------0--3--7--8--7--6--------0--3--6--7--6--3--5-----
B|--0-----------------------0-----------------------0--------------------------
G|-----------------------------------------------------------------------------
D|-----------------------------------------------------------------------------
A|-----------------------------------------------------------------------------
E|-----------------------------------------------------------------------------

E|-----0--3--5--6--5--2--3--------------------------------------------------------
B|--0--------------------------------------------------4-----4--4-----------------
G|-----------------------------------------------------4-----4--4-----------------
D|-----------------------------------------------------2-----2--2-----------------
A|--------------------------------------------------------------------------------
E|-----------------------------0-----0-----2--3-----------------------0--0--2--3--

E|--------0--------------------------1--------------------4-----5-----------0-----
B|-----------------------0--1--0--------------------0--1--------------4-----------
G|--2--2-----------2--2-----------2-----------2--2--------------------------------
D|--------------------------------------------------------------------------------
A|--------------------------------------------------------------------------------
E|--------------------------------------------------------------------------------

E|--------------------0--------------------------0--------------------------
B|--4-----4-----4-----0--------------------------0--------------------------
G|--2-----2-----2-----0--------------------------0--------------------------
D|--------------------2-----------2--1-----------2-----------2--------------
A|--------------------2-----0--1--------0--------2-----0--1-----1--0--------
E|--------------------0--3-----------------3-----0--3-----------------3--0--

E|--------------------------------------------0--3--8--6--7-----0--
B|--4-----4-----4--------------1-----0--------------------------0--
G|--4-----4-----4-----------0-----3-----------------------------0--
D|--2-----2-----2--------2--------------------------------------2--
A|--------------------------------------------------------------2--
E|--------------------------------------------------------------0--

E|---
B|--
G|--
D|--
A|--
E|--

Song lyrics here
E|--
B|--
G|--
D|--
A|--
E|--

Paste any tab in acousterr's tab maker and we'll play it !!!
Now supports capo and sound effects for vibrato/pull-off/hammer/bends/mutes etc !!! Checkout help section
tabs and chords, guitar tabs, music transcription, music technology, deep learning, music information retrieval, transcribe into tabs & chords, chordify, music renditions, songsterr, reverbnation, tabulature, bollywood chords, ultimate guitar, yousician, guitar lessons, acoustic guitar, electric guitar, guitar tuner, 911 tabs