Bass Tabs for In Talons Beareth

(/) Slide Up  (\) Slide Down  (h) Hammer On  (p) Pull Off  (b) Bend (r) Release (v) Vibrato (x) Muted

Tabs for Song : 
BPM : 138

Sec 1 x 4
Sec 2 x 6
Sec 3 x 4 
Sec 2 x 4 (Tremelo Pick)
Sec 1 x 4 
Sec 1 x 4 (with percusive rests)

Section 1  
F|-----------------------------------------------------------------------------------------------------------------------------------------------------------------------------------------------------------------------------------------------------------------------------------------------------------------------------------------------------------------------------------------------------------------------------
C|-----------------------------------------------------------------------------------------------------------------------------------------------------------------------------------------------------------------------------------------------------------------------------------------------------------------------------------------------------------------------------------------------------------------------------
G|--8--8--8--8--8--8--8--8--7--7--7--7--7--7--7--7--7--7--7--7--7--7--7--7--7--7--7--7--7--7--7--7--8--8--8--8--8--8--8--8--7--7--7--7--7--7--7--7--7--7--7--7--7--7--7--7--7--7--7--7--7--7--7--7--3--3--3--3--3--3--3--3--2--2--2--2--2--2--2--2--2--2--2--2--2--2--2--2--2--2--2--2-----------------------------------------------------------------------------------------------------------------------------------------
D|--------------------------------------------------------------------------------------------------------------------------------------------------------------------------------------------------------------------------------------------------------------------------------------3--3--3--3--2--2--2--2--3--3--3--3--5--5--5--5--5--5--5--5--5--5--5--5--5--5--5--5--5--6--6--6--6--6--6--6--6--6--6--6--6--6--6--6--6--

Section 2
F|-----------------------------------------------------------------------------------
C|--------------------------10----9-----7-----------------------------5-----6-----5--
G|--------8-----7-----------------------------------8-----7-----3--------------------
D|--0-----------------0-----------------------0--------------------------------------

Section 3
F|-----------------------------------------------------------------------------------------------------------------------------------------------------------------------------------------------
C|-----------------------------------------------------------------------------------------------------------------------------------------------------------------------------------------------
G|-----------------------------------------------------------------------------------------------------------------------------------------------------5--5--6--6--5--5--------4--4--5--5--4--4--
D|--5--5--5--5--8--5--8--5--5--5--5--5--8--5--8--5--4--4--4--4--7--4--7--4--4--4--4--7--4--7--4--0--0--0--0--3--0--3--0--0--0--0--0--3--0--3--0--3--3--------------------2--2--------------------




tabs and chords, guitar tabs, music transcription, music technology, deep learning, music information retrieval, transcribe into tabs & chords, chordify, music renditions, songsterr, reverbnation, tabulature, bollywood chords, ultimate guitar, yousician, guitar lessons, acoustic guitar, electric guitar, guitar tuner, 911 tabs