Guitar Tabs for In Blewm

(/) Slide Up  (\) Slide Down  (h) Hammer On  (p) Pull Off  (b) Bend (r) Release (v) Vibrato

Tabs for Song : 

Song lyrics here
E|--------
B|--------
G|--------
D|--9-----
A|-----10-
E|--------

Song lyrics here
E|-----------
B|-----------
G|-----------
D|--9--------
A|-----10----
E|--------11-

Add more lines by placing cursor below and adding notes

E|-----------
B|-----------
G|--------11-
D|--9--------
A|-----10----
E|-----------

E|-----------
B|-----------
G|--------12-
D|--9--------
A|-----10----
E|-----------
tabs and chords, guitar tabs, music transcription, music technology, deep learning, music information retrieval, transcribe into tabs & chords, chordify, music renditions, songsterr, reverbnation, tabulature, bollywood chords, ultimate guitar, yousician, guitar lessons, acoustic guitar, electric guitar, guitar tuner, 911 tabs