Guitar Tabs for Ico - Heal

(/) Slide Up  (\) Slide Down  (h) Hammer On  (p) Pull Off  (b) Bend (r) Release (v) Vibrato (x) Muted

Tabs for Song : 
BPM : 250

Song lyrics here 
E|--6--------------------------------------------------6--------------------------------------------------8--------------
B|--6--------8--6--------------8--6--------------------6--------8--6--------------8--6--------------8-----8--------8--6--
G|-----------------8-----------------8-----8-----5--------------------8-----------------8-----8--------------------------
D|-----------------------------------------------------------------------------------------------------------------------
A|-----------------------------------------------------------------------------------------------------------------------
E|-----------------------------------------------------------------------------------------------------------------------

E|--------8--------------------------------6--------------------------------------------------6--------------------6-----
B|--------8--------8--6--------------------6--------8--6--------------8--6--------------8-----6--------8--6--------6-----
G|--8--------------------8-----7-----8--------------------8-----------------8-----8--------------------------8-----------
D|-----------------------------------------------------------------------------------------------------------------------
A|-----------------------------------------------------------------------------------------------------------------------
E|-----------------------------------------------------------------------------------------------------------------------

E|-----------------------6--------------------6--------------------------------------------------------------------------
B|-----------------------6--------8--6--------6--------8--6--------6-----8--------------8--6-----------8--6--------------
G|-----5-----8-----3--------------------8--------------------8-----------------8--------------8--------------8-----7-----
D|-----------------------------------------------------------------------------------------------------------------------
A|-----------------------------------------------------------------------------------------------------------------------
E|-----------------------------------------------------------------------------------------------------------------------

E|--------6--------------------6--------------------------6-----------------------------------------------6--------------
B|--------6--------8--6--------6--------6-----------------6--------8--6-----------8--6--------------------6--------8--6--
G|--8--------------------8--------------------8-----5--------------------8--------------8-----8-----3--------------------
D|-----------------------------------------------------------------------------------------------------------------------
A|-----------------------------------------------------------------------------------------------------------------------
E|-----------------------------------------------------------------------------------------------------------------------

E|--------6-----------------------8--------------------8--------------------------------6--------------------6-----------
B|--------6-----------------6-----8--------8--6--------8--------8--6--------------------6--------8--6--------6--------8--
G|--8--------------3--7--3-----8-----------------8--------------------8-----7-----8--------------------8-----------------
D|-----------------------------------------------------------------------------------------------------------------------
A|-----------------------------------------------------------------------------------------------------------------------
E|-----------------------------------------------------------------------------------------------------------------------

E|-----------------6--------------------------------------------------6--------------------6-----------------6-----
B|--6-----------6-----8--------8--6-----------8--6--------------------6--------8--6--------6--------------6-----8--
G|-----8-----3-----------8-----------8--------------8-----7-----8--------------------8-----------3--7--3-----------
D|-----------------------------------------------------------------------------------------------------------------
A|-----------------------------------------------------------------------------------------------------------------
E|-----------------------------------------------------------------------------------------------------------------

Song lyrics here 
E|--
B|--
G|--
D|--
A|--
E|--

Use manual mode to free up cursor. Paste any tab in acousterr tab maker and we'll play it !!!
tabs and chords, guitar tabs, music transcription, music technology, deep learning, music information retrieval, transcribe into tabs & chords, chordify, music renditions, songsterr, reverbnation, tabulature, bollywood chords, ultimate guitar, yousician, guitar lessons, acoustic guitar, electric guitar, guitar tuner, 911 tabs