Guitar Tabs for I W T K W L I E C G 2

(/) Slide Up  (\) Slide Down  (h) Hammer On  (p) Pull Off  (b) Bend (r) Release (v) Vibrato (x) Muted

Tabs for Song : I Want To Know What Love Is Ending Chorus Guitar 2
BPM : 81
First Chorus Part 2 (Phrase 1) End 3:05 
E|-----------------
B|-----8--8--------
G|--7--------9--7--
D|-----------------
A|-----------------
E|-----------------
2nd Chorus Part 1 (Phrase 2) End 3:10 
E|--------------------------------10-10-----
B|-----------------------10-12-10-------13-12-10-
G|--------7--9--7---9/11-------------------------
D|---7/9-----------------------------------------
A|-----------------------------------------------
E|-----------------------------------------------
2nd Choris Part 2 (Phrase 3) End 3:17
E|--10-10h12-10-10-
B|-----------------
G|-----------------
D|-----------------
A|-----------------
E|-----------------
3rd Chorus Part 1 (Phrase 4) End 3:21
E|--14-15-14-12-12----------------------
B|-----------------15-15-13-12----12----
G|-----------------------------14----14-
D|--------------------------------------
A|--------------------------------------
E|--------------------------------------
3rd Chorus Part 2 (Phrase 5) End
E|--------------------------------------------
B|--13-12-10----13-12-10----13-12-10----12-12-
G|--------------------------------------------
D|--------------------------------------------
A|--------------------------------------------
E|--------------------------------------------
4th Chorus Part 1 (Phrase 6) End 3:33
E|--------------------------------
B|--15-13-12----12-13-12----------
G|-----------14----------14-12-14-
D|--------------------------------
A|--------------------------------
E|--------------------------------
4th Chorus Part 2 (Phrase 7) End 3:40
E|----------------------------------------------------------
B|--7--7--5--7-----7--7--5---7b5--5--5--3--------------------
G|--7--7--5--7-----7--7--5---7b------------5--3-----3--------
D|-----------------------------------------------5-----5--5-
A|-----------------------------------------------------------
E|-----------------------------------------------------------
5th Chorus Part 1 (Phrase 8) End 3:48
E|--10-12-10-------------------------------
B|-----------13-12-10----------------------
G|--------------------12-11-9--------------
D|-----------------------------12-10-9--10-
A|-----------------------------------------
E|-----------------------------------------
5th Chorus Part 2 (Phrase 9) End 3:55
E|-----------------
B|--7--7--------8--
G|--------7--9-----
D|-----------------
A|-----------------
E|-----------------
6th Chorus Part 1 (Phrase 10) End 4:00
E|--------15----------------------------
B|--15/17----15----15h17-15-------------
G|--------------------------17-16-16-17-
D|--------------------------------------
A|--------------------------------------
E|--------------------------------------
6th Chorus Part 2 (Phrase 11 / Repeat 7) End 4:06
E|--------------------------------------------------------------------------------
B|--------------------------------------------------------------------------------
G|-----7-----5--4-----------------------------------------------------------2-----
D|--7-----7--------7--5--4--7-----3--2--0--2--0--------------------2--4--5-----5--
A|-----------------------------5-----------------3--2--0--2--3--5-----------------
E|--------------------------------------------------------------------------------
7th Chorus Part 1 (Phrase 12) End 4:15
E|-----------------------------
B|-----------------------8-----
G|-----------------7--9-----9--
D|--7--7--7--7--9--------------
A|-----------------------------
E|-----------------------------
7th Chorus Part 2 (Phrase 13 / Repeat 5) End
E|--------------------------------------------
B|--13-12-10----13-12-10----13-12-10----12-12-
G|--------------------------------------------
D|--------------------------------------------
A|--------------------------------------------
E|--------------------------------------------






Use manual mode to free up cursor. Paste any tab in acousterr tab maker and we'll play it !!!
tabs and chords, guitar tabs, music transcription, music technology, deep learning, music information retrieval, transcribe into tabs & chords, chordify, music renditions, songsterr, reverbnation, tabulature, bollywood chords, ultimate guitar, yousician, guitar lessons, acoustic guitar, electric guitar, guitar tuner, 911 tabs