Guitar Tabs for I W T K W L I G 1

(/) Slide Up  (\) Slide Down  (h) Hammer On  (p) Pull Off  (b) Bend (r) Release (v) Vibrato (x) Muted

Tabs for Song : 
BPM : 81

Song lyrics here 
E|--------------------------1-----------------------------1--------------------------1-----------------------------
B|--------------------------1-----------------------------1--------------------------1-----------------------------
G|-----4--4--4--2--2--0--0--1--0--2--4---5\4--2--0--4--4--1-----4--4--4--2--2--0--0--1--0--2---4/5---5\4--2--0--4--
D|--0-----------------------1-----------------------------1--0-----------------------1-----------------------------
A|--------------------------1-----------------------------1--------------------------1-----------------------------
E|--------------------------1-----------------------------1--------------------------1-----------------------------

E|--------------------------1--------------------------------1-----------------------1-----------------------------
B|--------------------------1--------------------------3-----1-----3-----------------1-----------------------------
G|-----4--4--4--2--2--0--0--1--0--2--4--5--4--2--0--4-----4--1--4-----4--2--2--0--0--1--0--2---4/5--4--2--0--4--4--
D|--0-----------------------1--------------------------------1-----------------------1-----------------------------
A|--------------------------1--------------------------------1-----------------------1-----------------------------
E|--------------------------1--------------------------------1-----------------------1-----------------------------

E|-----------------1--------------------------1-----------------1--------------------------
B|-----8--10h8-----1--------10-12-10-8--7-----1-----8--10/8-----1--9--9--9--12-10-8--7-----
G|--9-----------9--1--9--9-----------------9--1--9-----------9--1-----------------------9--
D|-----------------1--------------------------1-----------------1--------------------------
A|-----------------1--------------------------1-----------------1--------------------------
E|-----------------1--------------------------1-----------------1--------------------------

E|--------------------------------1-----------------------------------1--10-10-10-10-7--7--8--1-----12-10-10-10/8--
B|--12-10-10\8-----12-10/8--7-----1-----8--12-12b12-8--------------8--1--12-12-12-12-8--8--10-1--8--13-12-12-12/10-
G|--------------9--------------9--1--7------------------7h9--7--9-----1-----------------------1--9-----------------
D|--------------------------------1-----------------------------------1-----------------------1--------------------
A|--------------------------------1-----------------------------------1-----------------------1--------------------
E|--------------------------------1-----------------------------------1-----------------------1--------------------

E|--10-10-10-10-7--7--8--1-----12-10-10-10/8--1-----------------------------------------10----1--------------------------
B|--12-12-12-12-8--8--10-1--8--13-12-12-12/10-1--------8-----------8--10-8--10\12-12-------12-1--------------------------
G|-----------------------1--9-----------------1---7/9-----9--7--9-----------------------------1-----4--4--4--2--2--0--0--
D|-----------------------1--------------------1-----------------------------------------------1--0-----------------------
A|-----------------------1--------------------1-----------------------------------------------1--------------------------
E|-----------------------1--------------------1-----------------------------------------------1--------------------------

E|--------------------------------1--------------------------1--------------------------------1-----------------------
B|--------------------------3-----1--------------------------1--------------------------3-----1---9/12--9/12-10-8-----
G|--0--2---4/5--4--2--0--4-----4--1--5--5--5--5--2--2--0--0--1--0--2---4/5--4--2--0--4-----4--1--------------------9--
D|--------------------------------1--------------------------1--------------------------------1-----------------------
A|--------------------------------1--------------------------1--------------------------------1-----------------------
E|--------------------------------1--------------------------1--------------------------------1-----------------------

E|-----------------------1-----------------1--------------------------1--------------1--------------------
B|--------12-10-8--7-----1-----8--10\8-----1-----------12-10-8--7-----1--12-10-10/8--1-----12-10-8--7-----
G|--9--9--------------9--1--9-----------9--1--9--9--9--------------9--1--------------1--9--------------9--
D|-----------------------1-----------------1--------------------------1--------------1--------------------
A|-----------------------1-----------------1--------------------------1--------------1--------------------
E|-----------------------1-----------------1--------------------------1--------------1--------------------
                                         Ending Chorus 1                              Ending Chorus 2 2nd Guitar
E|--------------------------1-----------1--10-10-10-10-7--7--8--1-----12-10-10-10/8--1--10-10-10-10-7--7--8--
B|-----8--12-12b12-8--------1-----------1--12-12-12-12-8--8--10-1--8--13-12-12-12/10-1--12-12-12-12-8--8--10-
G|--7------------------7h9--1--7---9p7--1-----------------------1--9-----------------1-----------------------
D|--------------------------1-----------1-----------------------1--------------------1-----------------------
A|--------------------------1-----------1-----------------------1--------------------1-----------------------
E|--------------------------1-----------1-----------------------1--------------------1-----------------------
                       Ending Chorus 3                              Ending Chrous 4
E|-----12-10-10-10/8--1--10-10-10-10-7--7--8--1-----12-10-10-10/8--1--10-10-10-10-7--7--8--1-----12-10-10-10/8--
B|--8--13-12-12-12/10-1--12-12-12-12-8--8--10-1--8--13-12-12-12/10-1--12-12-12-12-8--8--10-1--8--13-12-12-12/10-
G|--9 ----------------1-----------------------1--9-----------------1-----------------------1--9-----------------
D|--------------------1-----------------------1--------------------1-----------------------1--------------------
A|--------------------1-----------------------1--------------------1-----------------------1--------------------
E|--------------------1-----------------------1--------------------1-----------------------1--------------------
Ending Chorus 5                                Ending Chorus 6                              Ending Chorus 7
E|--10-10-10-10-7--7--8--1-----12-10-10-10/8--1--10-10-10-10-7--7--8--1-----12-10-10-10/8--1--10-10-10-10-7--7--8--
B|--12-12-12-12-8--8--10-1--8--13-12-12-12/10-1--12-12-12-12-8--8--10-1--8--13-12-12-12/10-1--12-12-12-12-8--8--10-
G|-----------------------1--9-----------------1-----------------------1--9-----------------1-----------------------
D|-----------------------1--------------------1-----------------------1--------------------1-----------------------
A|-----------------------1--------------------1-----------------------1--------------------1-----------------------
E|-----------------------1--------------------1-----------------------1--------------------1-----------------------

E|-----12-10-10-10/8--
B|--8--13-12-12-12/10-
G|--9-----------------
D|--------------------
A|--------------------
E|--------------------







Song lyrics here 


Use manual mode to free up cursor. Paste any tab in acousterr tab maker and we'll play it !!!
tabs and chords, guitar tabs, music transcription, music technology, deep learning, music information retrieval, transcribe into tabs & chords, chordify, music renditions, songsterr, reverbnation, tabulature, bollywood chords, ultimate guitar, yousician, guitar lessons, acoustic guitar, electric guitar, guitar tuner, 911 tabs