Guitar Tabs for I Gotchu

(/) Slide Up  (\) Slide Down  (h) Hammer On  (p) Pull Off  (b) Bend (r) Release (v) Vibrato (x) Muted

Tabs for Song : 

Song lyrics here
E|-----------x--------x--x-----------x--------x--x-----------x--------x--x-----------x--------x--x--
B|-----------x--------x--x-----------x--------x--x-----------x--------x--x-----------x--------x--x--
G|--------9--x-----9--x--x--------9--x-----9--x--x--------8--x-----8--x--x--------8--x-----8--x--x--
D|--------9--x-----9--x--x--------8--x-----8--x--x--------9--x-----9--x--x--------9--x-----9--x--x--
A|-----------x--------x--x--9--9-----x--9-----x--x-----------x--------x--x--7--7-----x--7-----x--x--
E|--9--9-----x--9-----x--x-----------x--------x--x--7--7-----x--7-----x--x-----------x--------x--x--

E|-----------x--------x--x-----------x--------x--x--------3--x-----3--x--x--3--4--4--x-----4--3--x--
B|--------9--x-----9--x--x--------9--x-----9--x--x--------2--x-----2--x--x--2-----2--x-----2-----x--
G|--------10-x-----10-x--x--------10-x-----10-x--x--------3--x-----3--x--x--3-----3--x-----3-----x--
D|--11-11----x--11----x--x--9--9-----x--9-----x--x--1--1-----x--1-----x--x--1--1--1--x--1--------x--
A|-----------x--------x--x-----------x--------x--x-----------x--------x--x-----------x-----------x--
E|-----------x--------x--x-----------x--------x--x-----------x--------x--x-----------x-----------x--

E|-----------------------x--------x--x-----------x--x-----------------------x--------x--x-----------x--
B|-----2-----------------x--------x--x-----------x--x-----9v----------------x--------x--x-----------x--
G|--------3-----------9--x-----9--x--x--------9--x--x--------9-----------8--x-----8--x--x--------8--x--
D|--1-----------------9--x-----9--x--x--------9--x--x--------------------9--x-----9--x--x--------9--x--
A|-----------------------x--------x--x--9--9-----x--x--9--------------------x--------x--x--7--7-----x--
E|--------------9--9-----x--9-----x--x-----------x--x--------------7--7-----x--7-----x--x-----------x--

E|--------x-----------x--------x-----------x--------x--------3--x-----3--x--x--3--4--4--x-----4--3--x--
B|--------x--------9--x-----9--x--------9--x-----9--x--------2--x-----2--x--x--2-----2--x-----2-----x--
G|-----8--x--------10-x-----10-x--------10-x-----10-x--------3--x-----3--x--x--3-----3--x-----3-----x--
D|-----9--x--11-11----x--11----x--9--9-----x--------x--1--1-----x--1-----x--x--1--1--1--x--1--------x--
A|--7-----x-----------x--------x-----------x--9-----x-----------x--------x--x-----------x-----------x--
E|--------x-----------x--------x-----------x--------x-----------x--------x--x-----------x-----------x--

E|--------------------x-----------------x--------------------x--------------x--------------x-----------------x--
B|-----2--------------x-----------------x--9-----9-----------x--------------x--------------x--9--------9--9--x--
G|--------3--------9--x--9--------9--9--x--9-----9--------8--x--8--------8--x--------8--8--x--8--------8--8--x--
D|--1--------------9--x--9--------8--8--x--8-----8--------9--x--9--------9--x--------9--9--x--9--------9--9--x--
A|--------------------x--------9--9--9--x--9-----9-----------x--------7-----x-----7--------x--------------7--x--
E|--------------9-----x-----------------x--------------7-----x--------------x--7-----------x--------7--------x--

E|-----3--3--x--3--3--x---3\8--x--8-----8--x--8--
B|--9--2--2--x--2--2--x-----8--x--8-----8--x--8--
G|--8--3--3--x--3--3--x-----5--x--5-----5--x--5--
D|--9--1--1--x--1--1--x--------x-----------x-----
A|--7--------x--------x--------x-----------x-----
E|-----------x--------x--------x-----------x-----

Song lyrics here
E|--
B|--
G|--
D|--
A|--
E|--

Paste any tab in acousterr's tab maker and we'll play it !!!
Now supports capo and sound effects for vibrato/pull-off/hammer/bends/mutes etc !!! Checkout help section
tabs and chords, guitar tabs, music transcription, music technology, deep learning, music information retrieval, transcribe into tabs & chords, chordify, music renditions, songsterr, reverbnation, tabulature, bollywood chords, ultimate guitar, yousician, guitar lessons, acoustic guitar, electric guitar, guitar tuner, 911 tabs