I Figured - Guitar Tabs

(/) Slide Up  (\) Slide Down  (h) Hammer On  (p) Pull Off  (b) Bend (r) Release (v) Vibrato (x) Muted

Tabs for Song : 
BPM : 200

Song lyrics here 
E|--------------------------------------------------------------------------
B|-----3--------3--------2--------2--------2--------2--------2--------2-----
G|--------4-----------------2-----------------2-----------------2--------2--
D|--4--------4-----2--2--------2-----2--4--------4-----4--4--------4--------
A|--------------------------------------------------------------------------
E|--------------------------------------------------------------------------

Song lyrics here 
E|-----------------------------------------------------------
B|-----------------------------------------------------------
G|--2--2-----------------------------4--4--2--2--------------
D|--2--2-----------------4--4--4--4--4--4--2--2--4--4--4--4--
A|--0--0--5--4--2--0-----4--4--4--4--2--2--0--0--4--4--4--4--
E|--------------------4--2--2--2--2--------------2--2--2--2--

E|--2-----2--
B|--3--3--2--
G|--2--4--2--
D|--0--4--4--
A|-----2--4--
E|--------2--

Use manual mode to free up cursor. Paste any tab in acousterr tab maker and we'll play it !!!

About Bluebird (Anne Murray song) : "Bluebird" is a song recorded by Canadian country pop singer Anne Murray for her 1990 album release You Will . It was the second track "Bluebird Lullaby" reached #28 on the RPM Country 50 Singles chart in March 1981 . Ron Irving had fronted the group Bootleg whose 1988 self-titled album had included a remake of the song . "Bluebird" would peak at #39 on the Billboard C&W chart . Sung to a calypso arrangement, Murray would subsequently have one final chart showing: "Everyday" It was released in 1990. It was released as part of album You Will. The genre is country. The track was release in 1990. Bluebird (Anne Murray song) has a significant contribution from artist(s) Anne Murray. It is related to the album(s) - You Will.

About Anne Murray - Morna Anne Murray has sold over 55 million copies worldwide during her 40-year career . Her albums consisting primarily of pop, country, and adult contemporary music Murray was the first Canadian female solo singer to reach No. 1 on the U.S. charts . She is often cited as one of the female Canadian artists who paved the way for other Canadian success stories such as k.d. lang, CĂ©line Dion and Shania Twain . Murray has received four Grammys, a record 24 Junos, three American Music Awards, three Country Music Association Awards, and three Canadian Country Music Awards . She has been inducted into the Hall of Fame, The Canadian Broadcast Hall of Famer and Canadian Anne Murray's music is influenced by genre(s) - country , soft rock , pop , adult contemporary.

About Say You Will (album) : First Fleetwood Mac album since Kiln House in 1970 did not include tracks written by Christine McVie . Lindsey Buckingham took over primary keyboard duties for the album . Stevie Nicks added some limited additional keyboard parts . The album debuted at No. 3 with sales of 218,000, spent two months within the top 40 . The album was certified Gold by the RIAA in July 2003 . Buckingham's cover of Bob Dylan's "Love Minus Zero/No Limit" was issued at the same time . A limited edition version of the album was issued with two live tracks . It had a contribution from notable artists like Christine McVie,Stevie Nicks. It had an affiliation to bands - Say You Will,Fleetwood Mac. Its music is influenced by genres - rock.

tabs and chords, guitar tabs, music transcription, music technology, deep learning, music information retrieval, transcribe into tabs & chords, chordify, music renditions, songsterr, reverbnation, tabulature, bollywood chords, ultimate guitar, yousician, guitar lessons, acoustic guitar, electric guitar, guitar tuner, 911 tabs