Bass Tabs for Hwco - Tragedie

(/) Slide Up  (\) Slide Down  (h) Hammer On  (p) Pull Off  (b) Bend (r) Release (v) Vibrato (x) Muted

Tabs for Song : Tragedie by HWCO
BPM : 200

Fast intro - play 2x then leave E
G|--------------------------------------------------------------------------
D|--------------------------------------------------------------------------
A|--------------(2)3--------------(3)2--------------(2)3--------------------
E|--0--0--0--0--------0--0--0--0--------0--0--0--0--------3--3--3--2--2--2--


Bridge 1 - play 2x
G|--------------------------------------------------------------------------
D|--------------------------------------------------------------------------
A|--------------------3--2--2--3--2--2--------------------5--5--5--5--3--2--
E|--0--0--0--0--0--0--------------------3--3--3--3--3--3--------------------

Bridge 2 - play 2x
G|--------------------------------------------------------------------------
D|--------------------------------------------------------------------------
A|-----------------2--2--2--2--2-----------------5--5--5--3--3--3-----------
E|--0--0--0--0--0-----------------3--3--3--3--3-----------------------------

Verse 1
G|--------------------------------------------------------------------------
D|--------------------------------------------------------------------------
A|--------------------------------------------------------------------------
E|--0--0--0--0--12-0--12-0--12-10-12-0--0--0--0--12-0--12-0--12-10-12-------

G|--------------------------------------------------------------------------
D|--------------------------------------------------------------------------
A|--------------------------------------------------------------------------
E|--0--0--0--0--3--0--3--0--3--3--5--0--0--0--0--3--0--3--0--3--6--5--------

Pre-chorus - play 2x
G|--------------------------------------------------------------------------
D|--------------------------------------------------------------------------
A|-----------------2--2--2--2--2-----------------5--5--5--3--3--3-----------
E|--0--0--0--0--0-----------------3--3--3--3--3-----------------------------

Chorus - play 4x
G|--------------------------------------------------------------------------
D|--------------------------------------------------------------------------
A|--------------------3--2--2--3--2--2--------------------5--5--5--5--3--2--
E|--0--0--0--0--0--0--------------------3--3--3--3--3--3--------------------

Outro
G|--------------------------------------------------------------------------
D|--------------------------------------------------------------------------
A|--3--3--3--2--2--2--------------------3--3--3--2--2--2--------------------
E|--------------------6--5--3--5--3--2--------------------6--5--3--5--3--2--

G|--------------------------------------------------------------------------
D|--------------------------------------------------------------------------
A|--3--3--3--2--2--2--------------------------------------------------------
E|--------------------8--6--5--6--5--3--5--3--2--0--0--0--0--0--0--0--0--0--
tabs and chords, guitar tabs, music transcription, music technology, deep learning, music information retrieval, transcribe into tabs & chords, chordify, music renditions, songsterr, reverbnation, tabulature, bollywood chords, ultimate guitar, yousician, guitar lessons, acoustic guitar, electric guitar, guitar tuner, 911 tabs