Bass Tabs for Hwco - Bomba

(/) Slide Up  (\) Slide Down  (h) Hammer On  (p) Pull Off  (b) Bend (r) Release (v) Vibrato (x) Muted

Tabs for Song : Bomba by HWCO
BPM : 200
 
Intro - guitar and bass only
G|-----------------------------------------------
D|-----------------------------------------------
A|--------------------------------------2--4--2-- 
E|--4--4--4-----4--4--4-----4--4--4--------------

G|-----------------------------------------------
D|-----------------------------------------------
A|--------------------------------------2--4--2-- 
E|--4--4--4-----4--4--4-----4--4--4--------------

G|-----------------------------------------------
D|-----------------------------------------------
A|--------------------------------------5--4--2--
E|--4--4--4-----4--4--4-----4--4--4--------------

G|-----------------------------------------------
D|-----------------------------------------------
A|--------------------------------------2--4--2-- 
E|--4--4--4-----4--4--4-----4--4--4--------------

G|-----------------------------------------------------------
D|-----------------------------------------------------------
A|--------------------------------------2--4--2-----5--4--2-- 
E|--4--4--4-----4--4--4-----4--4--4--------------------------

Verse 1 - play 2x
G|--------------------------------------------------------------------------
D|--------------------------------------------------------------------------
A|-----------2--4--2-----------2--4--2-----------2--4--2--5--4--2--5--4--2--
E|--4--4--4-----------4--4--4-----------4--4--4-----------------------------

Bridge 1 - play 1x
G|-----------------------------------------------------------------
D|-----------------------------------------------------------------
A|--5--5--5-----5--5--5-----5--5--5-----5--4--2-----4-----5--4--2--
E|-----------------------------------------------------------------

Pre-chorus - play 2x with strong cut after 2nd repeating
G|-----------------=--------------------------------
D|--------------------------------------------------
A|--------------7--6--4-----------------7--6--4-----
E|--4--4--4-----------------4--4--4-----------------

G|-----------------------------------------------------
D|-----------------------------------------------------
A|--7--7--7-----7--7--7-----9--9--9-----9--9--9---(9)--
E|-----------------------------------------------------

Chorus 1
G|--------------------------------------------------------------------------
D|--------------------------------------------------------------------------
A|--11-11-11----12-11-9-----11-11-11----12-11-9-----11-11-11----12-11-9-----
E|--------------------------------------------------------------------------

G|-----------------------------------------------
D|-----------------------------------------------
A|--2--4--4-----2--4--4-----2--4--4-----5--4--2--
E|-----------------------------------------------

G|--------------------------------------------------------------------------
D|--------------------------------------------------------------------------
A|--11-11-11----12-11-9-----11-11-11----12-11-9-----11-11-11----12-11-9-----
E|--------------------------------------------------------------------------

G|-----------------------------------------------------------------
D|-----------------------------------------------------------------
A|--2--4--4-----2--4--4-----2--4--4-----5--4--2-----4-----5--4--2--
E|-----------------------------------------------------------------

Verse 2 - play 2x (same as Verse 1)
G|--------------------------------------------------------------------------
D|--------------------------------------------------------------------------
A|-----------2--4--2-----------2--4--2-----------2--4--2--5--4--2--5--4--2--
E|--4--4--4-----------4--4--4-----------4--4--4-----------------------------

Bridge 2 - play 1x (same as Bridge 1)
G|-----------------------------------------------------------------
D|-----------------------------------------------------------------
A|--5--5--5-----5--5--5-----5--5--5-----5--4--2-----4-----5--4--2--
E|-----------------------------------------------------------------

Pre-chorus - play 2x with strong cut after 2nd repeating
G|-----------------=--------------------------------
D|--------------------------------------------------
A|--------------7--6--4-----------------7--6--4-----
E|--4--4--4-----------------4--4--4-----------------

G|-----------------------------------------------------
D|-----------------------------------------------------
A|--7--7--7-----7--7--7-----9--9--9-----9--9--9---(9)--
E|-----------------------------------------------------

Chorus 2 + short Outro
G|--------------------------------------------------------------------------
D|--------------------------------------------------------------------------
A|--11-11-11----12-11-9-----11-11-11----12-11-9-----11-11-11----12-11-9-----
E|--------------------------------------------------------------------------

G|-----------------------------------------------
D|-----------------------------------------------
A|--2--4--4-----2--4--4-----2--4--4-----5--4--2--
E|-----------------------------------------------

G|--------------------------------------------------------------------------
D|--------------------------------------------------------------------------
A|--11-11-11----12-11-9-----11-11-11----12-11-9-----11-11-11----12-11-9-----
E|--------------------------------------------------------------------------

G|-----------------------------------------------------------------------
D|-----------------------------------------------------------------------
A|--2--4--4-----2--4--4-----2--4--4-----5--4--2-----4-----5--4--2--------
E|-------------------------------------------------------------------4--
tabs and chords, guitar tabs, music transcription, music technology, deep learning, music information retrieval, transcribe into tabs & chords, chordify, music renditions, songsterr, reverbnation, tabulature, bollywood chords, ultimate guitar, yousician, guitar lessons, acoustic guitar, electric guitar, guitar tuner, 911 tabs