Guitar Tabs for Humma humma

Tabs for Song : Humma Humma


ek ho gaye hum aur tum
E|--------------------------
B|--------4--3--1-----1-----
G|--3--3-----------3--------
D|--------------------------
A|--------------------------
E|--------------------------

humma humma humma
E|-----------------------------
B|--------------------1--1-----
G|--3--3-----3--3--3-----------
D|-----------------------------
A|-----------------------------
E|-----------------------------

to udd gayi nenede re
E|--------------------------
B|-----4--4--3--1-----1-----
G|--3--------------3--------
D|--------------------------
A|--------------------------
E|--------------------------

hey humma
E|-----------------
B|---1h3-----1-----
G|--------------3--
D|-----------------
A|-----------------
E|-----------------

music
E|--------------------------
B|--------4--3--1-----1-----
G|--3--3-----------3--------
D|--------------------------
A|--------------------------
E|--------------------------

E|-----1-----------------------------------------
B|--------4--3--0-----------------------0--4-----
G|--3--------------3---3\4--3--1--3--------------
D|-----------------------------------------------
A|-----------------------------------------------
E|-----------------------------------------------


E|--------------------------------1--------------
B|-----0--4--3--4--3--4--3--4--------4--3--------
G|--3--------------------------------------3-----
D|-----------------------------------------------
A|-----------------------------------------------
E|-----------------------------------------------

ek ho gaye hum aur tum
E|--------------------------
B|--------4--3--1-----1-----
G|--3--3-----------3--------
D|--------------------------
A|--------------------------
E|--------------------------

to udd gayi nenede re
E|--------------------------
B|-----4--4--3--1-----1-----
G|--3--------------3--------
D|--------------------------
A|--------------------------
E|--------------------------

aur khanki payal masti mein toh kangan 
E|-----------------------------------------------
B|--------4--3--1--------1-----1---1\3--1--3-----
G|--3--3-----------3--3-----3--------------------
D|-----------------------------------------------
A|-----------------------------------------------
E|-----------------------------------------------
ye pahli baar mile 

E|--------------------------
B|--------4--3--1-----1-----
G|--3--3-----------3--------
D|--------------------------
A|--------------------------
E|--------------------------
tumpe ye dum nikle

E|--------------------------
B|-----4--4--3--1-----1-----
G|--3--------------3--------
D|--------------------------
A|--------------------------
E|--------------------------
tumpe ye jawani dheere dheere 

E|--------------------------------------
B|--------4--3--1--------1-----1--------
G|--3--3-----------3--3-----3-----3-----
D|--------------------------------------
A|--------------------------------------
E|--------------------------------------
mandham machle le

E|--------------------------
B|---1h3---1h3--1-----------
G|-----------------3--3-----
D|--------------------------
A|--------------------------
E|--------------------------
humma humma humma humma humma

E|-----------------------------------------
B|--------------------------------1--1-----
G|--3--3-----3--3-----3--3--3--3-----------
D|-----------------------------------------
A|-----------------------------------------
E|-----------------------------------------
hey humma humma humma humma humma

E|--------------------------------------------------
B|---1h3--1--------------------------------1--1-----
G|-----------3--3-----3--3-----3--3--3--3-----------
D|--------------------------------------------------
A|--------------------------------------------------
E|--------------------------------------------------


tabs and chords, guitar tabs, music transcription, music technology, deep learning, music information retrieval, transcribe into tabs & chords, chordify, music renditions, songsterr, reverbnation, tabulature, bollywood chords, ultimate guitar, yousician, guitar lessons, acoustic guitar, electric guitar, guitar tuner, 911 tabs