Guitar Tabs for Mere Rashk E Qamar

Tabs for Song : Mere Rashk E Qamar

Mere Rashk E Qamar 
E|-----------------------
B|--4--3--1--1--1--1-----
G|-----------------------
D|-----------------------
A|-----------------------
E|-----------------------

Tu Ne Pehli Nazar
E|--1--------------------
B|-----3--1--------------
G|-----------3--2--3-----
D|-----------------------
A|-----------------------
E|-----------------------

Jab Nazar Se Milaayi Maza Aagaya
E|-----------------------------------------
B|--------------------1--4-----------------
G|-----0---0h1--1--1--------1--3--1--0-----
D|--3--------------------------------------
A|-----------------------------------------
E|-----------------------------------------

Mere Rashk E Qamar Tu Ne Pehli Nazar
E|-----------1--1--1-----1--------------------------
B|--1--3--4-----------4--------1---3/4--4--4--4-----
G|--------------------------3-----------------------
D|--------------------------------------------------
A|--------------------------------------------------
E|--------------------------------------------------

Jab Nazar Se Milaayi Maza Aagaya
E|-----------------------------------1--1-----------------
B|--4--1-----------------------3--4--------3--4--3--1-----
G|--------3--1--1--1--1--3--3-----------------------------
D|--------------------------------------------------------
A|--------------------------------------------------------
E|--------------------------------------------------------

Barf Si Gir Gayi
E|-----------------------
B|--4--3--1--1--1--1-----
G|-----------------------
D|-----------------------
A|-----------------------
E|-----------------------

Kaam He Kar Gayi
E|--1--------------------
B|-----3--1--------------
G|-----------3--2--3-----
D|-----------------------
A|-----------------------
E|-----------------------

Aag Aisee Lagaayi Maza Aagaya
E|-----------------------------------------
B|--------------------1--4-----------------
G|-----0---0h1--1--1--------1--3--1--0-----
D|--3--------------------------------------
A|-----------------------------------------
E|-----------------------------------------

Jaam Mein Ghoul Kar
E|-----------------------
B|--4--3--1--1--1--1-----
G|-----------------------
D|-----------------------
A|-----------------------
E|-----------------------

Husan Ki Mastiyaan
E|--1--------------------
B|-----3--1--------------
G|-----------3--2--3-----
D|-----------------------
A|-----------------------
E|-----------------------

Chaandni Muskurai Maza Aagaya
E|-----------------------------------------
B|--------------------1--4-----------------
G|-----0---0h1--1--1--------1--3--1--0-----
D|--3--------------------------------------
A|-----------------------------------------
E|-----------------------------------------

Be Hijabaana Wo Saamne Aagaye
E|-----------1--1--1-----1--------------------------
B|--1--3--4-----------4--------1---3/4--4--4--4-----
G|--------------------------3-----------------------
D|--------------------------------------------------
A|--------------------------------------------------
E|--------------------------------------------------

Aur Jawaani Jawaani Se Takra Gayi
E|-----------------------------------1--1-----------------
B|--4--1-----------------------3--4--------3--4--3--1-----
G|--------3--1--1--1--1--3--3-----------------------------
D|--------------------------------------------------------
A|--------------------------------------------------------
E|--------------------------------------------------------

Aankh Unki Laree
E|-----------------------
B|--4--3--1--1--1--1-----
G|-----------------------
D|-----------------------
A|-----------------------
E|-----------------------

Yoon Meri Aankh Se
E|--1--------------------
B|-----3--1--------------
G|-----------3--2--3-----
D|-----------------------
A|-----------------------
E|-----------------------

Daikh Kar Ye Laraai Maza Aagaya
E|-----------------------------------------
B|--------------------1--4-----------------
G|-----0---0h1--1--1--------1--3--1--0-----
D|--3--------------------------------------
A|-----------------------------------------
E|-----------------------------------------

tabs and chords, guitar tabs, music transcription, music technology, deep learning, music information retrieval, transcribe into tabs & chords, chordify, music renditions, songsterr, reverbnation, tabulature, bollywood chords, ultimate guitar, yousician, guitar lessons, acoustic guitar, electric guitar, guitar tuner, 911 tabs