Guitar Tabs for Harry potter theme

Tabs for Song : harry potter theme song piano

E|-----0-----3--2--0-----7--5-----2--0--3--2-----
B|--0--------------------------------------------
G|-----------------------------------------------
D|-----------------------------------------------
A|-----------------------------------------------
E|-----------------------------------------------

E|-----2-----------0--3--2--0--7--10----
B|--3-----0-----0-----------------------
G|--------------------------------------
D|--------------------------------------
A|--------------------------------------
E|--------------------------------------


E|--9--8-----5--8--7--6--5--2--3-----0--3-----
B|--------------------------------------------
G|--------------------------------------------
D|--------------------------------------------
A|--------------------------------------------
E|--------------------------------------------

E|--7--3--7--2--8--7--6--2--3--8--7-----
B|--------------------------------------
G|--------------------------------------
D|--------------------------------------
A|--------------------------------------
E|--------------------------------------

E|--6--2--7--3--7--3--7--3--10----9-----
B|--------------------------------------
G|--------------------------------------
D|--------------------------------------
A|--------------------------------------
E|--------------------------------------

E|--8--5--8--7--6--5--2--3--0--
B|-----------------------------
G|-----------------------------
D|-----------------------------
A|-----------------------------
E|-----------------------------
tabs and chords, guitar tabs, music transcription, music technology, deep learning, music information retrieval, transcribe into tabs & chords, chordify, music renditions, songsterr, reverbnation, tabulature, bollywood chords, ultimate guitar, yousician, guitar lessons, acoustic guitar, electric guitar, guitar tuner, 911 tabs