Guitar Tabs for Zara zara

Tabs for Song : Zara Zara

Zara Zara Behekta Hain 
E|--------------------------0-----------
B|--2--3-----2--3--3--2--3-----2--3-----
G|--------------------------------------
D|--------------------------------------
A|--------------------------------------
E|--------------------------------------

Mehekta Hain 
E|-----------0-----------
B|--3--2--3-----2--3-----
G|-----------------------
D|-----------------------
A|-----------------------
E|-----------------------

Aaj To Mera Tan Badan 
E|-----------2--------------------
B|--2-----2-----3--2--3--2--3-----
G|--------------------------------
D|--------------------------------
A|--------------------------------
E|--------------------------------

Main Pyaasi Hoon 
E|-----------0-----------
B|--3--2--3-----2--3-----
G|-----------------------
D|-----------------------
A|-----------------------
E|-----------------------

Mujhe Bhar Le 
E|-----------0-----------
B|--3--2--3-----2--3-----
G|-----------------------
D|-----------------------
A|-----------------------
E|-----------------------

Apni Baahon Mein 
E|-----------------------------
B|--0--3-----2--0--2-----0-----
G|--------------------2--------
D|-----------------------------
A|-----------------------------
E|-----------------------------

Hai Meri Kasam Tujhko Sanam 
E|--------------------------------------
B|--0-----3--2--------------2--0--------
G|--------------2--2-----2--------0-----
D|--------------------------------------
A|--------------------------------------
E|--------------------------------------

Door Kahin Na Jaa 
E|-----------------------
B|--------------2--0-----
G|--0--2--0--------------
D|-----------4-----------
A|-----------------------
E|-----------------------

Yeh Doori Kehti Hain
E|-----------------------------
B|--0--3--2--------2--0--------
G|-----------2--2--------0-----
D|-----------------------------
A|-----------------------------
E|-----------------------------
 
Paas Mere Aaja Re
E|--------------------------
B|--------------2--2--0-----
G|--0--2--0-----------------
D|-----------4--------------
A|--------------------------
E|--------------------------

Yuhi Baras Baras Kaali Ghata Barse 
E|--------0--2-----0--2--0--2--0--2-----------
B|--0--3-----------------------------3--2-----
G|--------------------------------------------
D|--------------------------------------------
A|--------------------------------------------
E|--------------------------------------------

Hum Yaar Bheeg Jaaye 
E|--0--0--2-----------------------
B|-----------3--3--2--3--2--0-----
G|--------------------------------
D|--------------------------------
A|--------------------------------
E|--------------------------------

Is Chaahat Ki Baarish Mein 
E|-----0--0--0--0--------0--2--3--0--2-----
B|--0--------------2--2--------------------
G|-----------------------------------------
D|-----------------------------------------
A|-----------------------------------------
E|-----------------------------------------

Meri Khuyli Khuli Lato Ko Suljaaye  
E|--------0--2-----0--2--0--2--2--5-----5--------
B|--0--3-----------------------------3-----2-----
G|-----------------------------------------------
D|-----------------------------------------------
A|-----------------------------------------------
E|-----------------------------------------------

Tu Apni Ungliyon Se 
E|--0--0--0--2-----------------------
B|--------------3--3--2--3--2--0-----
G|-----------------------------------
D|-----------------------------------
A|-----------------------------------
E|-----------------------------------

Main To Hoon Isi Khwaayish Mein 
E|-----0--0--0--0--------0--2--3--0--2-----
B|--0--------------2--2--------------------
G|-----------------------------------------
D|-----------------------------------------
A|-----------------------------------------
E|-----------------------------------------

Sardi Ki Raaton Mein 
E|--2--7--7--2-----2--9--9--2-----
B|--------------------------------
G|--------------------------------
D|--------------------------------
A|--------------------------------
E|--------------------------------

Hum Soye Rahe Ek Chaadar Mein 
E|--2--10-10-10-9--7--5--5--7--5--7-----
B|--------------------------------------
G|--------------------------------------
D|--------------------------------------
A|--------------------------------------
E|--------------------------------------

Hum Dono Tanha Ho
E|--2--7--7--2-----2--2--5--5--0--0-----
B|--------------------------------------
G|--------------------------------------
D|--------------------------------------
A|--------------------------------------
E|--------------------------------------

Na Koi Bhi Rahe Is Ghar Mein
E|--0--3-----3--2--0--------------------
B|--------------------3--2--3--2--2-----
G|--------------------------------------
D|--------------------------------------
A|--------------------------------------
E|--------------------------------------


tabs and chords, guitar tabs, music transcription, music technology, deep learning, music information retrieval, transcribe into tabs & chords, chordify, music renditions, songsterr, reverbnation, tabulature, bollywood chords, ultimate guitar, yousician, guitar lessons, acoustic guitar, electric guitar, guitar tuner, 911 tabs