Guitar Tabs for Hermundur Hommi - Sarasott

(/) Slide Up  (\) Slide Down  (h) Hammer On  (p) Pull Off  (b) Bend (r) Release (v) Vibrato (x) Muted

Tabs for Song : 

Song lyrics here
E|-----------------------------------------0--------------------------------------------------0--------------------------------------------------0--------------------------------------------------0-----------
B|-----------------------------------------0--------------------------------------------------0--------------------------------------------------0--------------------------------------------------0-----------
G|-----------------------------------------0--------------------------------------------------0--------------------------------------------------0--------------------------------------------------0-----------
D|--------------------------------------------------------------------------------------------------------------------------------------------------------------------------------------------------------------
A|--------------------------------------------------------------------------------------------------------------------------------------------------------------------------------------------------------------
E|--0--9--7--0--7--5--0--5--3--0--3--1--0--------------0--9--7--0--7--5--0--5--3--0--3--1--0--------------0--9--7--0--7--5--0--5--3--0--3--1--0--------------0--9--7--0--7--5--0--5--3--0--3--1--0--------------

Song lyrics here
E|-----------------------------------------------------------------------------------------------------------------------------------------------------------------
B|-----------------------------------------------------------------------------------------------------------------------------------------------------------------
G|-----------------------------------------------------------------------------------------------------------------------------------------------------------------
D|--11----11----7-----7--9-----9-----14----12-------11----11----7-----7--9-----------------11----11----7-----7--9-----9-----14----12----11----11----7--7-----2-----
A|--11----11----7-----7--9-----9-----14----12-------11----11----7-----7--9-----------------11----11----7-----7--9-----9-----14----12----11----11----7--7-----2-----
E|--9-----9-----5-----5--7-----7-----12----10-------9-----9-----5-----5--7-----------------9-----9-----5-----5--7-----7-----12----10----9-----9-----5--5-----0-----



Paste any tab in acousterr's tab maker and we'll play it !!!
Now supports capo and sound effects for vibrato/pull-off/hammer/bends/mutes etc !!! Checkout help section
tabs and chords, guitar tabs, music transcription, music technology, deep learning, music information retrieval, transcribe into tabs & chords, chordify, music renditions, songsterr, reverbnation, tabulature, bollywood chords, ultimate guitar, yousician, guitar lessons, acoustic guitar, electric guitar, guitar tuner, 911 tabs