Bass Tabs for Hell Yeah - Lemonsweet Bass Tab

(/) Slide Up  (\) Slide Down  (h) Hammer On  (p) Pull Off  (b) Bend (r) Release (v) Vibrato (x) Muted

Tabs for Song : Hell,Yeah!

Strophe 1
G|--------5-----5-----5-----5--------7-----7-----7-----7--------10----10----10----10-------7-----7--9--10-9--7--
D|--------------------------------------------------------------------------------------------------------------
A|--5--5-----5-----5-----5-----8--8-----8-----8-----8-----10-10----10----10----10----8--8-----8-----------------
D|--------------------------------------------------------------------------------------------------------------

Refrain
G|--------------------------------------------------------------------------------------------------
D|--------------------------------------------------------------------------------------------------
A|--------------------------------8--8--------5--------------------------------------8--8-----------
D|--0--0---0/3---0/3--5--5--5--3--------10-5-----0--0---0/3--0--0---0/3--5--5--5--3--------10-8--7--

G|-----------------------------------------------
D|--------------------------------------5--5--5--
A|-----------------------------------------------
D|--0--0---0/3--0--0---0/3--5--5--5--3-----------

G|--------------------------------------------------------
D|-----------------------------------------------------3--
A|-----------------------------------------------3--5-----
D|--0--0--3--0--3--0--0--3--0--0--3--0--3--0--0-----------

Strophe

Refrain

Bridge

G|--------------------------------------------------------------
D|-----------0-----0--------0------0/------8-----8--------------
A|--------------------------------------------------------------
D|-----0--0-----0-----3--3-----3-----8--8-----8-----7--7--10/12\

Refrain

Solo


G|-----------------------------------------------------------
D|--------------------------------------------------------3--
A|--------------------------------------------------3--5-----
D|-----0--0--3--0--3--0--0--3--0--0--3--0--3--0--0-----------

G|-----------------------------------------------------------
D|-----------------------------------------------------------
A|-----------------------------------------------------------
D|--0--0--3--0--3--0--0--3--0--0--3--0--0--8--8--8--7--5--7--

G|-----------------------------------------------------------------------------------
D|------------------------3b4------------------------5b6------------------------6b7--
A|-----------------------------------------------------------------------------------
D|--0--0--3--0--3--0--0--------0--0--3--0--3--0--0--------0--0--3--0--3--0--0--------

G|--------------------------------------------
D|--------------------------------------------
A|--------------------------------------------
D|--0--0--3--0--0--8--8--8--7--5--7--5--3--0--


tabs and chords, guitar tabs, music transcription, music technology, deep learning, music information retrieval, transcribe into tabs & chords, chordify, music renditions, songsterr, reverbnation, tabulature, bollywood chords, ultimate guitar, yousician, guitar lessons, acoustic guitar, electric guitar, guitar tuner, 911 tabs