Guitar Tabs for Havaana

(/) Slide Up  (\) Slide Down  (h) Hammer On  (p) Pull Off  (b) Bend (r) Release (v) Vibrato (x) Muted

Tabs for Song : 


Havana, ooh na-na (ay)
E|-----------------------
B|-----------------------
G|-----7--7--------------
D|--8--------8--8--5-----
A|-----------------------
E|-----------------------


Half of my heart is in Havana,
E|-----------------------
B|-----------------------
G|--7--5--7--8--7--5-----
D|--------------------8--
A|-----------------------
E|-----------------------

ooh-na-na (ay, ay)
E|--------------------
B|--------------------
G|--7--7--------------
D|--------8--8--5-----
A|--------------------
E|--------------------

He took me back to East Atlanta,
E|-----------------------
B|-----------------------
G|--7--5--7--8--7--5-----
D|--------------------8--
A|-----------------------
E|-----------------------

na-na-na
E|--------------------
B|--------------------
G|--7--7--------------
D|--------8--8--5-----
A|--------------------
E|--------------------

All of my heart is in Havana (ay)
E|--------------------------------
B|--------------------------------
G|--7--5--7--8--7--5-----7--------
D|--------------------8-----8-----
A|--------------------------------
E|--------------------------------

havana na na
E|-----------------------
B|-----------------------
G|--7--5--7--5-----7-----
D|--------------8-----7--
A|-----------------------
E|-----------------------

oo na na
E|--------------------
B|--------------------
G|--------------------
D|--8--7--8--7--8--5--
A|--------------------
E|--------------------




tabs and chords, guitar tabs, music contests, music covers, songsterr, reverbnation, renditions, tabulature, bollywood chords, ultimate guitar, yousician, guitar lessons, torrins, fender, gibson, acoustic guitar, electric guitar, youtube covers, gootar, guitar tuner, A-Z tabs, 911 tabs