Guitar Tabs for Hanson - Mmmbop

Hanson - MMMBop

Intro

       (A)              (E)              (D)              (E)
E|--------0--------------0--------------2--------------0--------
B|-----------2--------------0--------------3--------------0-----
G|-----2--------2-----1--------1-----2--------2-----1--------1--   2x
D|--------------------------------------------------------------
A|--------------------------------------------------------------
E|--------------------------------------------------------------

1st Verse

      (A)            (E)            (D)            (E)
You have so many relationships in this life, only one or two will last
E|--------0--------------0--------------2--------------0--------------
B|-----------2--------------0--------------3--------------0-----------
G|-----2--------2-----1--------1-----2--------2-----1--------1--------   
D|--------------------------------------------------------------------  
A|--------------------------------------------------------------------
E|--------------------------------------------------------------------

      (A)               (E)                         (D)                    (E)                    (A) (E) (D) (E)
         You're going through all this pain and strife then you turn your back and they're gone so fast
E|--------0-----------------0--------------------------2-----------------------0-----------------------
B|-----------2-----------------0--------------------------3-----------------------0--------------------
G|-----2--------2--------1--------1-----------------2--------2--------------1--------1-----------------   
D|-----------------------------------------------------------------------------------------------------  
A|-----------------------------------------------------------------------------------------------------
E|-----------------------------------------------------------------------------------------------------
      (A)               (E)               (D)         (E)
          So hold on the ones who really care, on the end they'll be the only ones there
E|--------0-----------------0-----------------2-----------0-----------------------------
B|-----------2-----------------0-----------------3-----------0--------------------------
G|-----2--------2--------1--------1--------2--------2--1--------1-----------------------   
D|--------------------------------------------------------------------------------------  
A|--------------------------------------------------------------------------------------
E|--------------------------------------------------------------------------------------

   (A)               (E)               (D)                  (E)
       When you get old and start losing your hair, can you tell me who will 
E|-----0-----------------0-----------------2--------------------0-----------
B|--------2-----------------0-----------------3--------------------0--------
G|--2--------2--------1--------1--------2--------2-----------1--------1-----   
D|--------------------------------------------------------------------------  
A|--------------------------------------------------------------------------
E|--------------------------------------------------------------------------

   (A)         (E)               (D)                  (E)
still    care,                                  can you tell me who will still 
E|-----0-----------0-----------------2--------------------0--------------------
B|--------2-----------0-----------------3--------------------0-----------------
G|--2--------2--1--------1--------2--------2-----------1--------1--------------   
D|-----------------------------------------------------------------------------  
A|-----------------------------------------------------------------------------
E|-----------------------------------------------------------------------------

   (A)         (E)               (D)                  (E)
    care,                                    okay-yeah
E|-----0-----------0-----------------2--------------------0-----------
B|--------2-----------0-----------------3--------------------0--------
G|--2--------2--1--------1--------2--------2-----------1--------1-----   
D|--------------------------------------------------------------------  
A|--------------------------------------------------------------------
E|--------------------------------------------------------------------

Chorus

Strum-Pattern -> DD-UD-UD-U

(A)                    (D)
Mmm bop, ba duba dop ba du bop, ba duba dop

    (A)                  (E) 
Ba du bop, ba duba dop ba du, yeah yeah

(A)                    (D)
Mmm bop, ba duba dop ba du bop, ba duba dop

    (A)                  (E) 
Ba du bop, ba duba dop ba du, yeah yeah

Pos-Chorus

(A)     (E)      (D)       (E)         (A)  (E)  (D)  (E)
Said, oh yeah in an mmmbop they're gone       yeah, yeah
 
2nd Verse

(A)               (E)               (D)         (E)
Plant a seed, plant a flower, plant a rose, you can plant any one of those

(A)                (E)                (D)             (E)
Keep planting to find out which one grows, it's a secret no one

(A) (E) (D)           (E)         (A)  (E)   (D)     (E)
knows,      it's a secret no one knows,            oh oh

Chorus

(A)                    (D)
Mmm bop, ba duba dop ba du bop, ba duba dop

    (A)                  (E) 
Ba du bop, ba duba dop ba du, yeah yeah

(A)                    (D)
Mmm bop, ba duba dop ba du bop, ba duba dop

    (A)                  (E) 
Ba du bop, ba duba dop ba du, yeah yeah


Pos-Chorus

(A)      (E)               (D)      (E)                  (A)
In an mmm bop they're gone. In an mmm bop they're not there
      (E)                 (D)       (E)                (A)  (E) (D)
In an mmm bop they're gone. In an mmm bop they're not there
          (E)        (A) (E)         (D)       (E)
Until you lose your hair,  but you don't care

Chorus

(A)                    (D)
Mmm bop, ba duba dop ba du bop, ba duba dop

    (A)                  (E) 
Ba du bop, ba duba dop ba du, yeah yeah

(A)                    (D)
Mmm bop, ba duba dop ba du bop, ba duba dop

    (A)                  (E) 
Ba du bop, ba duba dop ba du, yeah yeah


Bridge

(A)               (E)  (D)            (E)
  Can you tell me? Oh no you can't 'cause you don't know

(A)               (E)  (D)          (E)  
  Can you tell me? Oh yeah you say you can but you don't know

(A)               (E)                                (D)          (E)     
  Can you tell me? Oh (Which flower's going to grow?) No you can't, but you don't know

(A)               (E)  (D)          (E)     
  Can you tell me? (If it's going to be a daisy or a rose?) You say you can but you don't know

(A)               (E)    (D)              (E)        (A) (E) (D) (E) (A)   (E) (D) (E)      
  Say you can but you don't know you don't know how, you don't know how


Chorus Variation

Strum Pattern -> DD

(A)        (E)     (D)       (E) 
Mmmbop, duba, du bop, du, yeah, yeah

(A)        (E)     (D)       (E) 
Mmmbop oh yeah duba du bop, du oh yeah

Chorus

(A)                    (D)
Mmm bop, ba duba dop ba du bop, ba duba dop

    (A)                  (E) 
Ba du bop, ba duba dop ba du, yeah yeah

(A)                    (D)
Mmm bop, ba duba dop ba du bop, ba duba dop

    (A)                  (E) 
Ba du bop, ba duba dop ba du, yeah yeah

(A)                    (D)
Mmm bop, ba duba dop ba du bop, ba duba dop

    (A)                  (E) 
Ba du bop, ba duba dop ba du, yeah yeah

(A)                    (D)
Mmm bop, ba duba dop ba du bop, ba duba dop

    (A)                  (E) 
Ba du bop, ba duba dop ba du, yeah yeah

----------------------------------------------------------------------------
Chords

    A     D     E 
E|--0-----2-----0--
B|--2-----3-----0--
G|--2-----2-----1--
D|--2-----0-----2--
A|--0-----------2--
E|--------------0--
tabs and chords, guitar tabs, music transcription, music technology, deep learning, music information retrieval, transcribe into tabs & chords, chordify, music renditions, songsterr, reverbnation, tabulature, bollywood chords, ultimate guitar, yousician, guitar lessons, acoustic guitar, electric guitar, guitar tuner, 911 tabs