Guitar Tabs for Hangover

Tabs for Song : Hangover

jaane kab hontho pe
E|-----------------------------
B|-----------------2-----------
G|--2--2--2--2--2--------1-----
D|-----------------------------
A|-----------------------------
E|-----------------------------

dil ne rakh di dil ki batein
E|-----------------------------------------
B|-----------------------------------------
G|--1--------1--1--2--2--2--1--------------
D|-----4--4-----------------------4--4-----
A|-----------------------------------------
E|-----------------------------------------

samjha nahi ye dil 
E|-----------------------------
B|-----------------2-----------
G|--2--2--2--2--2--------1-----
D|-----------------------------
A|-----------------------------
E|-----------------------------

isko hum to rahe samjhate
E|-----------------------------------------------
B|-----------------------------------------------
G|--1-----------1-----1--2--2--2--1--------------
D|-----4--4--------------------------4--4--4-----
A|-----------------------------------------------
E|-----------------------------------------------

mene dekha tujhe bhulake
E|-----------------------------------
B|--2--2-----------------------------
G|--------2--2--2--2--1--------1-----
D|-----------------------4-----------
A|-----------------------------------
E|-----------------------------------

har ek tarkeeb lagake
E|-----------------------------------
B|--2--2-----------------------------
G|--------2--2--2--2--1--------1-----
D|-----------------------4-----------
A|-----------------------------------
E|-----------------------------------

har nuskhe ko aazma ke
E|-----------------------------------
B|--2--2-----------------------------
G|--------2--2--2--2--1--------1-----
D|-----------------------4-----------
A|-----------------------------------
E|-----------------------------------

per dil se kabhi na utre
E|-----------------------------------------------------
B|--2--0--0--0--2--2--3--3--2--2--2--2--0--------------
G|-----------------------------------------2--1--------
D|-----------------------------------------------4-----
A|-----------------------------------------------------
E|-----------------------------------------------------

hangover teri yaadon ka
E|-----------------------------------------------
B|--------------------2--0--2--0-----0-----------
G|--------1-----2-----------------2-----2--1-----
D|--4--------------------------------------------
A|-----------------------------------------------
E|-----------------------------------------------

hangover teri baaton ka
E|-----------------------------------------------
B|--------------------2--0--2--0-----0-----------
G|--------1-----2-----------------2-----2--1-----
D|--4--------------------------------------------
A|-----------------------------------------------
E|-----------------------------------------------


tabs and chords, guitar tabs, music contests, music covers, songsterr, reverbnation, renditions, tabulature, bollywood chords, ultimate guitar, yousician, guitar lessons, torrins, fender, gibson, acoustic guitar, electric guitar, youtube covers, gootar, guitar tuner, A-Z tabs, 911 tabs