Guitar Tabs for Haareyan

Tabs for Song : Haareyan


intro tab
E|-----------------------------
B|-----------------------------
G|--------4--------4-----4-----
D|--2--2-----2--2-----2--------
A|-----------------------------
E|-----------------------------

E|-----------------------------
B|-----------------------------
G|--------4--------4-----4-----
D|--2--2-----2--2-----2--------
A|-----------------------------
E|-----------------------------

dekheyan mein chand dekheyan
E|--0--0-----------------------------
B|--------0-----------0--------------
G|-----------2--0--2-----2--0--------
D|-----------------------------2-----
A|-----------------------------------
E|-----------------------------------

noor wale sitare dekheyan
E|--0--0-----------------------------
B|--------0-----------0--------------
G|-----------2--0--2-----2--0--------
D|-----------------------------2-----
A|-----------------------------------
E|-----------------------------------

par tere jesa na koi dekheyan mein
E|--0--0-----------------------------------------------
B|--------0-----------0--------------------------------
G|-----------2--0--2-----2--0--0-----2--0--2-----2-----
D|-----------------------------------------------------
A|-----------------------------------------------------
E|-----------------------------------------------------

lagta hai nigahon mein tere 
E|--0--0-----------------------------
B|--------0-----------0--------------
G|-----------2--0--2-----2--0--------
D|-----------------------------2-----
A|-----------------------------------
E|-----------------------------------

bin doobe rahna hi nahi
E|--0--0-----------------------------
B|--------0-----------0--------------
G|-----------2--0--2-----2--0--------
D|-----------------------------2-----
A|-----------------------------------
E|-----------------------------------

mujhe ishq yeh karne se
E|--0--0-----------------------------
B|--------0-----------0--------------
G|-----------2--0--2-----2--0--------
D|-----------------------------2-----
A|-----------------------------------
E|-----------------------------------

ab koi bhi na rok sakeya
E|--------------------------------------
B|--------------------------------------
G|-----------------------------2--2-----
D|--2--4--5--4--5--4--5--4--5-----------
A|--------------------------------------
E|--------------------------------------

o haareyan mein dil haareyan
E|--------------------------------------
B|--------------------------------------
G|--------------------------------------
D|--4--4--5--4--0--2-----4--5--4--4-----
A|--------------------------------------
E|--------------------------------------

o haareyan mein dil haareyan
E|--------------------------------
B|--------------------------------
G|--------------------4--2--2-----
D|--4--4--5--4--0--2--------------
A|--------------------------------
E|--------------------------------

o haareyan mein dil haareyan
E|--------------------------------------
B|--------------------------------------
G|--------------------------------------
D|--4--4--5--4--0--2-----4--5--4--4-----
A|--------------------------------------
E|--------------------------------------

mein haara tujhpe o..
E|-----------------------------------------
B|-----------------------------------------
G|-----------------------0-----------------
D|-----0-----0--2--0--2-----4--2--0--------
A|--2-----2--------------------------------
E|-----------------------------------------

tabs and chords, guitar tabs, music contests, music covers, songsterr, reverbnation, renditions, tabulature, bollywood chords, ultimate guitar, yousician, guitar lessons, torrins, fender, gibson, acoustic guitar, electric guitar, youtube covers, gootar, guitar tuner, A-Z tabs, 911 tabs