Bass Tabs for H

(/) Slide Up  (\) Slide Down  (h) Hammer On  (p) Pull Off  (b) Bend (r) Release (v) Vibrato (x) Muted

Tabs for H: 
Tuning:  Eb Standard

Main Riff:
F|--------------------------------------------------------------------------------------------------
C|--------------------------------------------------------------------------------------------------
G|--0-----0--3-----3--3--0-----------5-----5--5--3--0-----0--3-----3--3--0-----------5-----5--5--3--
D|--------------------------3-----3-----------------------------------------3-----3-----------------

Chorus
F|-----------x-----------x--------------------------
C|-----------x-----------x--------------------------
G|--5-----5--x--3-----3--x-----------5-----5--------
D|-----------x-----------x--3-----3-----------3-----

Chorus Final Rotation
F|-----------x-----------x-----------------5--7-----
C|-----------x-----------x--5-----5--7--------------
G|--5-----5--x--3-----3--x--------------------------
D|-----------x-----------x--------------------------

Bridge Before Solo
F|-----------------------------2--------2-----------------------------------------------------------
C|--------------------------------------------------------------------------------------------------
G|--3-----3-----------2--0--------0--0-----0--0--2--3-----3-----------3-----------------------------
D|-----------------------------------------------------------------------3-----3--3--3--3--3--3--3--

tabs and chords, guitar tabs, music transcription, music technology, deep learning, music information retrieval, transcribe into tabs & chords, chordify, music renditions, songsterr, reverbnation, tabulature, bollywood chords, ultimate guitar, yousician, guitar lessons, acoustic guitar, electric guitar, guitar tuner, 911 tabs