Guitar Tabs for Game Of Thrones Got Theme

(/) Slide Up  (\) Slide Down  (h) Hammer On  (p) Pull Off  (b) Bend (r) Release (v) Vibrato (x) Muted

Tabs for Song : 

Song lyrics here
E|--------------------------------------------------------------------------------------------------
B|--8-----------8-----------8-----------8-----------8-----------8-----------8-----------8-----------
G|--------8--10-------8--10-------8--10-------8--10-------9--10-------9--10-------9--10-------9--10-
D|-----10----------10----------10----------10----------10----------10----------10----------10-------
A|--------------------------------------------------------------------------------------------------
E|--------------------------------------------------------------------------------------------------

E|--------------------------------------------------------------------------------------------------
B|--8-----------8-----------------------------------------------------------------------------------
G|--------8--10-------8--10-7-----------7-----------7-----------7--------10----8--7--10----8--7-----
D|-----10----------10-------------8--10-------8--10-------8--10-------8-----8-----------8--------10-
A|-----------------------------10----------10----------10----------10-------------------------------
E|--------------------------------------------------------------------------------------------------

E|-----------------------------------------------------------------------------------------
B|-----------------------------------------------------------------------------------------
G|--------------------------------10----8--7--10----8--7-----------------------------------
D|--10-------8--10-------8--10-------8-----------8--------10-10-------8--10-------8--10----
A|-----10-11-------10-11-------10-------------------------------10-11-------10-11-------10-
E|-----------------------------------------------------------------------------------------

E|-----------------------------------------------------------------------------------------------------
B|--8-----------8--------------------------------------------------------------------------------------
G|--------8--10-------8--10-7-----------7-----------7-----------7--------10----10p-8\7--10----8--7-----
D|-----10----------10-------------8--10-------8--10-------8--10-------8-----8--------------8--------10-
A|-----------------------------10----------10----------10----------10----------------------------------
E|-----------------------------------------------------------------------------------------------------

E|-----------------------------------------------------------------------------------
B|--------------------------------8-----------8--------------------------------------
G|--------------------------------------8--10-------8--10-7--10----7--8--7-----------
D|--10-------8--10-------8--10-------10----------10-------------8-----------8---8/10-
A|-----10-11-------10-11-------10----------------------------------------------------
E|-----------------------------------------------------------------------------------

E|-----------------------------------------------------------------------------------------
B|-----------------------6---8h9--8--------------------------------------------------------
G|--5--------5--------5--------------8--10-10/12-8-----8--7--------------------------------
D|--------8-----8-----------------------------------10-------10-------8--10-------8--10----
A|-----6-----------6--------------------------------------------10-11-------10-11-------10-
E|-----------------------------------------------------------------------------------------

E|--11-10-8-----------------6--8---6h-8p6--------------------------------------
B|-----------11-8--11-11/13-----------------------8h9--8-----------------------
G|--------------------------------------------10----------8--10-10/12-8-----8--
D|-----------------------------------------10----------------------------10----
A|-----------------------------------------------------------------------------
E|-----------------------------------------------------------------------------

E|--------------------------------------------8-----------8-----------8-----------8--
B|-----------------------------------------------8--9--11----8--9--11----8--9--11----
G|-----------------------------------------------------------------------------------
D|--10-------8--10-------8--10-------8--10-------------------------------------------
A|-----10-11-------10-11-------10-11-------10----------------------------------------
E|-----------------------------------------------------------------------------------

Song lyrics here
E|--
B|--
G|--
D|--
A|--
E|--

Now supports capo and sound effects for vibrato/pull-off/hammer/bends/mutes etc !!! Checkout help section
tabs and chords, guitar tabs, music transcription, music technology, deep learning, music information retrieval, transcribe into tabs & chords, chordify, music renditions, songsterr, reverbnation, tabulature, bollywood chords, ultimate guitar, yousician, guitar lessons, acoustic guitar, electric guitar, guitar tuner, 911 tabs