Guitar Tabs for Game Of Thrones Theme

Intro
Cm C
Cm Gm Bb Fm
Cm Gm Bb Cm
E|--------------------------------------------------------------------------------------------------
B|--------8-----------8-----------8-----------8-----------8-----------8-----------8-----------8-----
G|--8--10-------8--10-------8--10-------8--10-------9--10-------9--10-------9--10-------9--10-------
D|-----------10----------10----------10----------10----------10----------10----------10----------10-
A|--------------------------------------------------------------------------------------------------
E|--------------------------------------------------------------------------------------------------

E|-----------------------------------------------------------
B|-----------------------------3-----------3-----------3-----
G|-----------------------------------4--5--------4--5--------
D|--------------------------------5-----------5-----------5--
A|--10-------8--10----6--8--5--------------------------------
E|-----8--11-------8-----------------------------------------

E|-----------------------------------------------------------
B|-----------------------------1-----------1-----------1-----
G|-----------------------------------1--3--------1--3--------
D|--------------------------------3-----------3-----------3--
A|--8-----6--5--8--------------------------------------------
E|-----6-----------6--11-10-8--------------------------------

E|-----------------------------------------------------------
B|-----------------------------3-----------3-----------3-----
G|-----------------------------------4--5--------4--5--------
D|--------------------------------5-----------5-----------5--
A|--10-------8--10----6--8--5--------------------------------
E|-----8--11-------8-----------------------------------------

E|-----------------------
B|-----------------------
G|-----------------------
D|-----------------------
A|--8-----5--6--5--------
E|-----6-----------6--8--

E|-----------------------------------------------
B|-----------------------------------------------
G|-----------------------------------------------
D|-----8--10-------8--10-------8--10-------8--10-
A|--11-------10-11-------10-11-------10-11-------
E|-----------------------------------------------

G# D# Fm Cm G# Fm Gm Cm
tabs and chords, guitar tabs, music transcription, music technology, deep learning, music information retrieval, transcribe into tabs & chords, chordify, music renditions, songsterr, reverbnation, tabulature, bollywood chords, ultimate guitar, yousician, guitar lessons, acoustic guitar, electric guitar, guitar tuner, 911 tabs