Guitar Tabs for Game Of Thrones Theme

E|-----------------------------------------------------------------------------------------------------------------------------------
B|-----------------------------------------------------------------------------------------------------------------------------------
G|-----------------------------------------------------------------------------------------------------------------------------------
D|--7-----------3--5--7-----------3--5--7-----------3--5--7-----------4--5--7-----------4--5--7-----------4--5--7-----------4--5--7--
A|--------5-----------------5-----------------5-----------------5-----------------5-----------------5-----------------5--------------
E|-----------------------------------------------------------------------------------------------------------------------------------

E|-----------------------------------------------------------------------------------------------------------------------------
B|-----------------------------------------------------------------------------------------------------------------------------
G|-----------------------------------------------------------------------------------------------------------------------------
D|--------7--------------------------3--5--7-----------------3--5--2-----------------2-----------------2-----------------2-----
A|-----------------------5-----------------------------5-----------------0-----3--5--------0-----3--5--------0-----3--5--------
E|-----------------------------------------------------------------------------------------------------------------------------

E|-----------------------------------------------------------------------------------------------------------------
B|-----------------------------------------------------------------------------------------------------------------
G|-----------------------------------------------------------------------------------------------------------------
D|-----5--------------------2--3--5--------------3--2--------------------------------------------------------------
A|-----------------3-----------------------3-----------5-----------1--3--5-----------1--3--5-----------1--3--5-----
E|-----------------------------------------------------------3-----------------3-----------------3-----------------

E|--------------------------------------------------------------------------------------------------------------
B|--------------------------------------------------------------------------------------------------------------
G|--------------------------------------------------------------------------------------------------------------
D|------5/7--------------3--5--7--------------3--5--2-----------------2-----------------2-----------------2-----
A|--------------5-----------------------5-----------------0-----3--5--------0-----3--5--------0-----3--5--------
E|--------------------------------------------------------------------------------------------------------------

E|-----------------------------------------------------------------------------------------------------------
B|-----------------------------------------------------------------------------------------------------------
G|-----------------------------------------------------------------------------------------------------------
D|-----5-----------------2-----3-----2-----------------------------------------------------------------------
A|--------------3--------------------------3-----5-----0-----1--3--5-----0-----1--3--5-----0-----1--3--5-----
E|-----------------------------------------------------------------------------------------------------------

E|-----5-----------------------5-----------------------------------------------------------------------------------
B|-----------------------6--8--------------------6--8--5-----------------5-----------------5-----------------5-----
G|--------------7-----------------------7--------------------------5--7--------------5--7--------------5--7--------
D|-----------------------------------------------------------7-----------------7-----------------7-----------------
A|-----------------------------------------------------------------------------------------------------------------
E|-----------------------------------------------------------------------------------------------------------------

E|--------------------------------------------------------------------------------------------------------------
B|-----8--------------------5-----6-----5-----------------------------------------------------------------------
G|-----------------5--------------------------5-----7-----------------7-----------------7-----------------7-----
D|--------------------------------------------------------7-----8--10-------7-----8--10-------7-----8--10-------
A|--------------------------------------------------------------------------------------------------------------
E|--------------------------------------------------------------------------------------------------------------

E|-----10----------6--8--10----------5--6--8-----------5--6--8-----------3--5--6-----------3--5--6-----------1--3--5-----------1--3--5--------
B|-----------6-----------------6-----------------6-----------------6-----------------3-----------------3-----------------3-----------------3--
G|--------------------------------------------------------------------------------------------------------------------------------------------
D|--------------------------------------------------------------------------------------------------------------------------------------------
A|--------------------------------------------------------------------------------------------------------------------------------------------
E|--------------------------------------------------------------------------------------------------------------------------------------------

E|-----1--3--1-----------1--3--1-----------1--------------------------------------------------5--10----10-5--------------
B|--------------------------------------------------8--6--8--5--8-----10-8--10-7--10----------6--------------6-----6-----
G|-----------------3-----------------3-----------5-----------------7-----------------7--------7-----------------7-----7--
D|-----------------------------------------------------------------------------------------------------------------------
A|-----------------------------------------------------------------------------------------------------------------------
E|-----------------------------------------------------------------------------------------------------------------------

E|-----10----------6--8--10----------5--6--8-----------5--6--8-----------3--5--6-----------3--5--6-----------1--3--5-----------1--3--5--------
B|-----------6-----------------6-----------------6-----------------6-----------------3-----------------3-----------------3-----------------3--
G|--------------------------------------------------------------------------------------------------------------------------------------------
D|--------------------------------------------------------------------------------------------------------------------------------------------
A|--------------------------------------------------------------------------------------------------------------------------------------------
E|--------------------------------------------------------------------------------------------------------------------------------------------


E|-----1--3--1-----------1--3--1-----------1-----------------1-----------
B|--------------------------------------------------2--------3-----------
G|-----------------3-----------------3--------------2--------2-----------
D|--------------------------------------------------2--------0-----------
A|-----------------------------------------------------------------------
E|-----------------------------------------------------------------------


tabs and chords, guitar tabs, music contests, music covers, songsterr, reverbnation, renditions, tabulature, bollywood chords, ultimate guitar, yousician, guitar lessons, torrins, fender, gibson, acoustic guitar, electric guitar, youtube covers, gootar, guitar tuner, A-Z tabs, 911 tabs