Ukulele Tabs for Game Of Thrones Theme

A|--7-----0-----3--5--7-----0-----3--5--7-----0-----3--5--7-----0--
E|-----------------------------------------------------------------
C|-----------------------------------------------------------------
G|-----------------------------------------------------------------


A|-----4--5--7-----0-----4--5--7-----0-----4--5--7-----0-----4--5--7-----
E|-----------------------------------------------------------------------
C|-----------------------------------------------------------------------
G|-----------------------------------------------------------------------


A|-----7--------0-----3--5---5/7-----0-----
E|-----0--------0--------------------0-----
C|-----0--------0--------------------0-----
G|--------------2--------------------2-----

 
A|---3/5--2-----------2-----------2-----------2-----------
E|--------3------3h5---------3h5---------3h5--------3-----
C|--------4--4-----------4-----------4-----------4--------
G|--------0-----------------------------------------------

A|-----5------------3p2--5------------3\2--0-----------0--------------0--------------0--------------
E|-----3-----3------3----------3------0-----------1h3------------1h3------------1h3-----------1-----
C|-----2------------2-----------------0----------------------2--------------2--------------2--------
G|-----0------------0-----------------0-------------------------------------------------------------


A|--7--------0-----3--5---5/7-----0-----
E|--0--------0--------------------0-----
C|--0--------0--------------------0-----
G|-----------2--------------------2-----


A|---3/5--2-----------2-----------2-----------2-----------
E|--------3------3h5---------3h5---------3h5--------3-----
C|--------4--4-----------4-----------4-----------4--------
G|--------0-----------------------------------------------


A|--5-----------2--3--2--------0-----------0-----------0-----------0--------------
E|--3-----3-----3--------3-----0--0---1h3-----0---1h3-----0---1h3-----0---1h3-----
C|--2-----------2--------------0--------------------------------------------------
G|--0-----------0--------------2--------------------------------------------------
tabs and chords, guitar tabs, music transcription, music technology, deep learning, music information retrieval, transcribe into tabs & chords, chordify, music renditions, songsterr, reverbnation, tabulature, bollywood chords, ultimate guitar, yousician, guitar lessons, acoustic guitar, electric guitar, guitar tuner, 911 tabs