Guitar Tabs for Game Of Thrones Got Theme Tabs

(/) Slide Up  (\) Slide Down  (h) Hammer On  (p) Pull Off  (b) Bend (r) Release (v) Vibrato

Part 1

E|--------------------------------------------------
B|--------------------------------------------------
G|--------------------------------------------------
D|--7-----3--5--7-----3--5--7-----3--5--7-----3--5--
A|-----5-----------5-----------5-----------5--------
E|--------------------------------------------------


E|-----------------------------------------
B|-----------------------------------------
G|-----------------------------------------
D|--7-----4--5--7-----4--5--7-----4--5--7--
A|-----5-----------5-----------5-----------
E|-----------------------------------------

Part 2

E|--------------------------------------
B|--------------------------------------
G|--------------------------------------
D|--7-----------3--5--7-----------3--5--
A|--------5-----------------5-----------
E|--------------------------------------


E|-----------------------------------------
B|-----------------------------------------
G|-----------------------------------------
D|-----------------------------------------
A|--7--0--3--5--7--0--3--5--7--0--3--5--7--
E|-----------------------------------------


E|-----------------------------------------
B|-----------------------------------------
G|-----------------------------------------
D|--5-----------3--2--5-----------3--2--0--
A|--------3-----------------3--------------
E|-----------------------------------------


E|--------------------------------------
B|--------------------------------------
G|--------------------------------------
D|--------------------------------------
A|-----1--3--5-----1--3--5-----1--3--5--
E|--3-----------3-----------3-----------


E|--------------------------------------------
B|--------------------------------------------
G|--------------------------------------------
D|--7-----------3--5--7-----------3--5--------
A|--------5-----------------5-----------7--0--
E|--------------------------------------------


E|-----------------------------------
B|-----------------------------------
G|-----------------------------------
D|-----------------------------------
A|--3--5--7--0--3--5--7--0--3--5--7--
E|-----------------------------------


E|-----------------------------------------
B|-----------------------------------------
G|-----------------------------------------
D|--5-----------3--2--5-----------3--2--0--
A|--------3-----------------3--------------
E|-----------------------------------------


E|--------------------------------------
B|--------------------------------------
G|--------------------------------------
D|--------------------------------------
A|--0--1--3--5--0--1--3--5--0--1--3--5--
E|--------------------------------------


Part 3


E|-----------------------------------------
B|-----------------------------------------
G|--14----------10-12-14----------10-12-9--
D|--------12----------------12-------------
A|-----------------------------------------
E|-----------------------------------------


E|-----------------------------------------
B|-----------------------------------------
G|-----------9-----------9-----------9-----
D|-----10-12-------10-12-------10-12-------
A|--12----------12----------12----------12-
E|-----------------------------------------


E|-----------------------------------------------------------------------
B|-----------------------------------------------------------------------
G|--------12----------9--10-9--5--7-----------7-----------7-----------7--
D|--10----------10-------------------7--8--10----7--8--10----7--8--10----
A|-----------------------------------------------------------------------
E|-----------------------------------------------------------------------

tabs and chords, guitar tabs, music contests, music covers, songsterr, reverbnation, renditions, tabulature, bollywood chords, ultimate guitar, yousician, guitar lessons, torrins, fender, gibson, acoustic guitar, electric guitar, youtube covers, gootar, guitar tuner, A-Z tabs, 911 tabs