Guitar Tabs for Gj

(/) Slide Up  (\) Slide Down  (h) Hammer On  (p) Pull Off  (b) Bend (r) Release (v) Vibrato (x) Muted
(/) Slide Up  (\) Slide Down  (h) Hammer On  (p) Pull Off  (b) Bend (r) Release (v) Vibrato

Solo 1

E|---------------------------------10--11-----15--11----------11------------------------6-----6--8/13--11-
B|--15--13--12---------13------13---------------------13-------------13--11--10------------6--------------
G|--------------12---------12-----------------------------12---------------------10-----------------------
D|--------------------------------------------------------------------------------------------------------
A|--------------------------------------------------------------------------------------------------------
E|--------------------------------------------------------------------------------------------------------

E|---10-------------------------------------------------------------------------------------17b18--
B|-------11------11--13--11--13b---13--15--16--15--13--15b16-----14--15--17--17h18--17--18---------
G|-----------10------------------------------------------------------------------------------------
D|-------------------------------------------------------------------------------------------------
A|-------------------------------------------------------------------------------------------------
E|-------------------------------------------------------------------------------------------------

Stave 2:

E|--
B|--
G|--
D|--
A|--
E|--

							http://www.guitartabcreator.com
tabs and chords, guitar tabs, music contests, music covers, songsterr, reverbnation, renditions, tabulature, bollywood chords, ultimate guitar, yousician, guitar lessons, torrins, fender, gibson, acoustic guitar, electric guitar, youtube covers, gootar, guitar tuner, A-Z tabs, 911 tabs