Guitar Tabs for Geeba

(/) Slide Up  (\) Slide Down  (h) Hammer On  (p) Pull Off  (b) Bend (r) Release (v) Vibrato (x) Muted

Tabs for Song : 

Song lyrics here
E|--------------------------------------------------------------------------------------------------------------------------------------------
B|--0--0-----------------0--0-----------0--0-----------------------0--0-----------------------------------------14-15-17-15-14----------------
G|--------------------------------------------6--7--4--6--2--4--0-----------------------------------------14-16----------------16-14-12-0--0--
D|--------------0-----------------------------------------------------------------------------------16-17-------------------------------------
A|-----------0-----------------4--5--7-----------------------------------0--------------12-14-16-17-------------------------------------------
E|--------0--------3--5-----------------------------------------------------9--10-12-14-------------------------------------------------------

E|-----------------------------------------------------------------------------------------------
B|--0--0--------0--0-----------0-----------0--0--------------0--0-----------0--0-----------0--0--
G|--------------------------0-----------------------------0--------------------------------------
D|-----------0-----------0--------------0--------------0-----------------0--------------0--------
A|--------0-----------0--------------0-----------2--0-----------------4--------------9-----------
E|--------------------------------3--------------------------------5--------------7--------------

E|--------------------------------------------------------------0--5--3--0-----0-----0-----3--
B|-----------0--0--------------------------0-----0-----0--1--0--------------1--------------3--
G|--------------------------------------------------------------------------------2-----0--4--
D|--------0-----------------0-----------------2-----0--------------------------------------5--
A|-----11----------0-----0-----0--1--2--3--------------------------------------------------5--
E|--9-----------------0--------------------------------------------------------------------3--

Song lyrics here
E|--
B|--
G|--
D|--
A|--
E|--

Paste any tab in acousterr's tab maker and we'll play it !!!
Now supports capo and sound effects for vibrato/pull-off/hammer/bends/mutes etc !!! Checkout help section
tabs and chords, guitar tabs, music transcription, music technology, deep learning, music information retrieval, transcribe into tabs & chords, chordify, music renditions, songsterr, reverbnation, tabulature, bollywood chords, ultimate guitar, yousician, guitar lessons, acoustic guitar, electric guitar, guitar tuner, 911 tabs