Bass Tabs for Fugazi Song - Harborer

(/) Slide Up  (\) Slide Down  (h) Hammer On  (p) Pull Off  (b) Bend (r) Release (v) Vibrato (x) Muted

Tabs for Song : 
BPM : 200

Intro/Interlude (x4)
G|-----------------------------------------------------------------------------------------------------
D|-----------7--------7-----7--------7--------7-----7--------7--------7-----7--------7--------7-----7--
A|-----------------------------------------------------5--5-----5--5-----5-----5--5-----5--5-----5-----
E|---0/7--7-----7--7-----7-----7--7-----7--7-----7-----------------------------------------------------
Verse
G|-----------------------------------------------------------------------------------------------------
D|--------7--------7-----7--------7--------7-----7-----------------------------------------------------
A|--------------------------------------------------------7--------7-----7--------7--------7-----7-----
E|--7--7-----7--7-----7-----7--7-----7--7-----7-----0--0-----0--0-----0-----0--0-----0--0-----0--------

G|-----------------------------------------------------------------------------------------------------
D|--------7--------7-----7--------7--------7-----7-----------------------------------------------------
A|--------------------------------------------------------7--------7-----7--------7--------7-----7-----
E|--7--7-----7--7-----7-----7--7-----7--7-----7-----0--0-----0--0-----0-----0--0-----0--0-----0--------

G|--------------------------------------------------------------------------------------------------------
D|--------7--------7-----7--------7--------7-----7--------7--------7-----7--------9--------9-----9--------
A|--------------------------------------------------5--5-----5--5-----5-----7--7-----7--7-----7-----------
E|--7--7-----7--7-----7-----7--7-----7--7-----7-----------------------------------------------------------

G|--------------------------------------------------------------------------------------------------
D|--------7--------7-----7--------7--------7-----7--------7--------7-----7--------9--------9-----9--
A|--------------------------------------------------5--5-----5--5-----5-----7--7-----7--7-----7-----
E|--7--7-----7--7-----7-----7--7-----7--7-----7-----------------------------------------------------

Chorus (x2)
G|-------------------------------------------------------------9--------9-----9--------7--------7-----7--
D|--------------5--------5-----5--------5--------5-----5--------------------------------------------------
A|---0/---7--7-----7--7-----7-----7--7-----7--7-----7-----9--9-----9--9-----9-----9--9-----9--9-----9-----
E|-----------------------------------------------------------------------------------------------------
 
G|--------------------------------------------------------------------------------------------------------
D|--------4--------4-----4--------4--------4-----4--------------------------------------------------------
A|--------------------------------------------------------10-------10----10-------10-------10----10-------
E|--5--5-----5--5-----5-----5--5-----5--5-----5-----0--0-----0--0-----0-----0--0-----0--0-----0-----------
Breakdown (repeat however needed)
G|-----------------------------------------------------------------------------------------------------------
D|-----------------7--------------------------------7-----------------------------7-----------------------7--
A|-----------------------------------------------------------------------------------------------------------
E|---0/7-----------------------------7-----------------------------7--------------------------7--------------
Guitar riff (Listen to the recording for timing)

G|--------9--------8-----------
D|-----8--------7--------6-----
A|--7--------6--------5--------
E|--------------------------

Form

Intro (x4)
Verse
Chorus (x2)
Intro (x2)
Verse
Chorus (x4)
Breakdown
(somewhere in the middle the guitar riff happens)
Chorus (x2)
Intro (now the outro, I guess) (x2)
end on the beat where the recording ends
tabs and chords, guitar tabs, music transcription, music technology, deep learning, music information retrieval, transcribe into tabs & chords, chordify, music renditions, songsterr, reverbnation, tabulature, bollywood chords, ultimate guitar, yousician, guitar lessons, acoustic guitar, electric guitar, guitar tuner, 911 tabs