Guitar Tabs for For Sufis

(/) Slide Up  (\) Slide Down  (h) Hammer On  (p) Pull Off  (b) Bend (r) Release (v) Vibrato (x) Muted

Tabs for Song : 
BPM : 200
Capo at 4th fret
Verse 1 
E|--------------------------------------------------
B|--------------------------------------------------
G|-----4-----------4-----------4-----------4--------
D|-----------0-----------0-----------0------------0\
A|--------0-----------0-----------0-----------0-----
E|-----3--------3--------------3--------3-----------

E|--------------------------------------------------
B|--------------------------------------------------
G|-----7-----------7-----------7-----------7--------
D|-----------0-----------0-----------0------------0/
A|--------0-----------0-----------0-----------0-----
E|-----7--------7--------------7--------7-----------

E|--------------------------------------------------
B|--------------------------------------------------
G|-----4-----------4-----------4-----------4--------
D|-----------0-----------0-----------0------------0\
A|--------0-----------0-----------0-----------0-----
E|-----3--------3--------------3--------3-----------

E|--------------------------------------------------
B|--------------------------------------------------
G|-----11----------11----------11----------11-------
D|-----------0-----------0-----------0------------0/
A|--------0-----------0-----------0-----------0-----
E|-----10-------10-------------10-------10----------

Verse 2
E|--------------------------------------------------
B|--------------------------------------------------
G|-----4-----------4-----------4-----------4--------
D|-----------0-----------0-----------0------------0\
A|--------0-----------0-----------0-----------0-----
E|-----3--------3--------------3--------3-----------

E|--------------------------------------------------
B|--------------------------------------------------
G|-----7-----------7-----------6-----------6--------
D|-----------0-----------------------0--------------
A|--------0-----------------------0-----------------
E|-----7--------7--------------5--------5-----------

E|--------------------------------------------------
B|--------------------------------------------------
G|-----4-----------4-----------4-----------4--------
D|-----------0-----------0-----------0------------0\
A|--------0-----------0-----------0-----------0-----
E|-----3--------3--------------3--------3-----------

E|--------------------------------------------------
B|--------------------------------------------------
G|-----11----------11----------6------------6\------
D|-----------0-----------------------0--------------
A|--------0-----------------------0-----------------
E|-----10-------10-------------5--------5-----------

Verse 3
E|--------------------------------------------------
B|--------------------------------------------------
G|-----7-----------7-----------7-----------2--------
D|-----------0-----------0-----------0------------0\
A|--------0-----------0-----------0-----------0-----
E|-----7--------7--------------7-----------2--------

E|--------------------------------------------------
B|--------------------------------------------------
G|-----4-----------4-----------4-----------4--------
D|-----------0-----------0-----------0------------0\
A|--------0-----------0-----------0-----------0-----
E|-----3--------3--------------3--------3-----------

E|--------------------------
B|--------------------------
G|-----11----------11-------
D|-----------0-----------0--
A|--------0-----------0-----
E|-----10-------10----------

E|--------------------------------------------------
B|--------------------------------------------------
G|-----11----------6-----------7-----------7--------
D|-----------0-----------0-----------0-----------0--
A|--------0-----------0-----------0-----------0-----
E|-----10----------5-----------7--------7-----------

Verse 4
E|--------------------------------------------------------------------------
B|--------------------------------------------------------------------------
G|-----7-----------2-----------4-----------4-----------4-----------4--------
D|-----------0-----------0-----------0-----------0-----------0-----------0--
A|--------0-----------0-----------0-----------0-----------0-----------0-----
E|-----7-----------2-----------3--------3--------------3--------3-----------

E|--------------------------------------------------
B|--------------------------------------------------
G|-----11----------11----------11----------6--------
D|-----------0-----------0-----------0-----------0--
A|--------0-----------0-----------0-----------0-----
E|-----10-------10-------------10----------5--------

E|--------------------------------------------------
B|--------------------------------------------------
G|-----7-----------7-----------7-----------2--------
D|-----------0-----------0-----------0-----------0--
A|--------0-----------0-----------0-----------0-----
E|-----7--------7--------------7-----------2--------

E|--------------------------------------------------
B|--------------------------------------------------
G|-----4-----------4-----------4-----------4--------
D|-----------0-----------0-----------0-----------0--
A|--------0-----------0-----------0-----------0-----
E|-----3--------3--------------3--------3-----------

E|--------------------------------------
B|--------------------------------------
G|-----6-----------6-----------6--------
D|-----------0-----------0-----------0--
A|--------0-----------0-----------0-----
E|-----5--------5--------------5--------

E|--------------------
B|--------------------
G|-----6-----------7--
D|-----------0--------
A|--------0-----------
E|-----5-----------7--

Verse 5
E|-----------------------------
B|-----------------------------
G|--------4--------7--------6--
D|-----------------------------
A|-----------------------------
E|--------3--------7--------5--

E|-----------------------------
B|-----------------------------
G|--------4--------11-------6--
D|-----------------------------
A|-----------------------------
E|--------3--------10-------5--








Use manual mode to free up cursor. Paste any tab in acousterr tab maker and we'll play it !!!
tabs and chords, guitar tabs, music transcription, music technology, deep learning, music information retrieval, transcribe into tabs & chords, chordify, music renditions, songsterr, reverbnation, tabulature, bollywood chords, ultimate guitar, yousician, guitar lessons, acoustic guitar, electric guitar, guitar tuner, 911 tabs