Guitar Tabs for Foo Fighters - My Hero

Foo Fighters - My Hero

Intro

(E) (C#m) 4x (F#m) (A)

1st Verse

(E)      (C#m)           (E)        (C#m)
    Too alarming now, to talk about

(E)         (C#m)              (E)         (C#m)
  Take your pictures down, and shake it out

(E)       (C#m)        (E)     (C#m)
  Truth or consequence, say it aloud

(E)       (C#m)     (E)     (C#m)
  Use that evidence, race it around

Chorus

(A)                                   (E) (B)
There goes my hero, watch him as he goes

(A)                                   (E)  (B)  (F#m)  (A)
There goes my hero, he's ordinary

E|-----------------
B|-----------------
G|--8--9--8---4b6--
D|-----------------
A|-----------------
E|-----------------

2nd Verse

(E)       (C#m)          (E)           (C#m)
  Don't the best of them bleed it out?

(E)        (C#m)         (E)        (C#m)
  While the rest of them peter out

(E)        (C#m)       (E)      (C#m)
  Truth or consequence, say it aloud

(E)        (C#m)     (E)      (C#m)
  Use that evidence, race it around

Chorus

(A)                                   (E) (B)
There goes my hero, watch him as he goes

(A)                                   (E)  (B) (F#m)  (A)
There goes my hero, he's ordinary


Bridge

(E)               (E)        (C#m)
E|--------------------------------
B|--------------------------------
G|--8--9--8--4-----8--9--8---4b6--  2x
D|--------------------------------
A|--------------------------------
E|--------------------------------
 
(E) -< Crescendo

(E)       (C#m)  (E)          (C#m) 
  Kudos my hero, leaving all the best
  
(E)         (C#m)  (E)             (C#m) 
  You know my hero, the one that's on


Chorus

(A)                                   (E)  (B)
There goes my hero, watch him as he goes

(A)                                   (E)  (B)   
There goes my hero, he's ordinary

(A)                                   (E)  (B)
There goes my hero, watch him as he goes

(A)                                   (E)  (B)  (F#m)  (A)
There goes my hero, he's ordinary

E|--------------
B|--------------
G|--------------
D|--------------
A|--6--7--6--2--
E|--------------

----------------------------------------------------------------------------------------------------
Chords
    
    E    C#m   F#m
E|--0-----4-----2-----
B|--0-----5-----2-----
G|--1-----6-----2-----
D|--2-----6-----4-----
A|--2-----4-----4-----
E|--0-----------2-----

    A     B
E|--0-----2--
B|--2-----4--
G|--2-----4--
D|--2-----4--
A|--0-----2--
E|-----------

tabs and chords, guitar tabs, music transcription, music technology, deep learning, music information retrieval, transcribe into tabs & chords, chordify, music renditions, songsterr, reverbnation, tabulature, bollywood chords, ultimate guitar, yousician, guitar lessons, acoustic guitar, electric guitar, guitar tuner, 911 tabs