Bass Tabs for Foo Fighters - My Hero

Foo Fighters - My Hero

Almost The Whole Song
G|--------------------------------------------------
D|--------------------------------------------------
A|--------------------4--4--4--4--4--4--4--4--4--4--
E|--0--0--0--0--0--0--------------------------------

Pre-Verse Phrase
G|-----------------
D|-----------------
A|-----4--2--------
E|--2--------4--5--

Chorus
G|--------------------------------------------------
D|--------------------------------------------------
A|--------------------------------------4--4--4--4--
E|--5--5--5--5--5--5--5--5--5--5--5--5--------------

G|--------------------------------------------------
D|--------------------------------------------------
A|--------------------------------------------------
E|--0--0--0--0--0--0--0--0--0--0--0--0--0--0--0--0--

G|--------------------------------------------------
D|--------------------------------------------------
A|--------------------------------------------------
E|--0--0--0--0--0--0--0--0--0--0--0--0--7--7--7--7--

Breakdown
G|-----------------------------------------------
D|-----------------------------------------------
A|-----------------4--------------------4--------
E|--0--------0-----------0--------0-----------0--

G|-----------------------------------------------------------------
D|-----------------------------------------------------------------
A|-----------------------------------------------------------------
E|--0--0--0--0--0--0--0--0--0--0--0--0--0--0--0--0--0--0--0--0--0--
tabs and chords, guitar tabs, music transcription, music technology, deep learning, music information retrieval, transcribe into tabs & chords, chordify, music renditions, songsterr, reverbnation, tabulature, bollywood chords, ultimate guitar, yousician, guitar lessons, acoustic guitar, electric guitar, guitar tuner, 911 tabs