Bass Tabs for Foo Fighters - Resolve

Foo Fighters - Resolve

Intro/Chorus/Bridge
G|--------------------
D|--------------------
A|--------------------
E|--2--3--2--3--2--3--

G|-----------------------------------------------------------------------
D|-----------------------------------------------------------------------
A|-----------------------------------------------------------------------
E|--5--5--5--5--5--5--5--5--5--5--5--0--0--0--0--0--0--0--0--0--0--0--0--

G|-----------------------------------------------------------------------
D|-----------------------------------------------------------------------
A|--5--5--5--5--5--5--5--5--5--5--5--------------------------------------
E|-----------------------------------3--3--3--3--3--3--2--3--2--3--2--3--

Verse
G|--------------------------------------------------------------------------
D|--------------------------------------------------------------------------
A|--------------------------------------------------------------------------
E|--5--5--5--5--5--5--5--5--5--5--5--5--0--0--0--0--0--0--0--0--0--0--0--0--

G|--------------------------------------------------------------------------
D|--------------------------------------------------------------------------
A|--------------------------------------5--5--5--5--5--5--5--5--5--5--5--5--
E|--3--3--3--3--3--3--3--3--3--3--3--3--------------------------------------
tabs and chords, guitar tabs, music transcription, music technology, deep learning, music information retrieval, transcribe into tabs & chords, chordify, music renditions, songsterr, reverbnation, tabulature, bollywood chords, ultimate guitar, yousician, guitar lessons, acoustic guitar, electric guitar, guitar tuner, 911 tabs