Bass Tabs for Foo Fighters - Breakout

Foo Fighters - Breakout

Intro has NO BASS

Verse
G|-----------------------------------------------------------------------------------------------
D|-----------------------------------------------------------------------------------------------
A|--2--2-----2--2-----2-----------------------------2--2-----2--2-----2--------------------------
E|--------------------------3--3-----3--3-----3-----------------------------0--0-----0--0-----2--

G|--------------------------------------------------------------------------                        2x
D|--------------------------------------------------------------------------
A|--------------------------------------------------------------------------
E|--3--3--3--3--3--5--0--0--0--0--0--5--3--3--3--3--3--5--0--0--0--0--0--5--

Verse 2
G|--------------------------------------------------------------------------------
D|--------------------------------------------------------------------------------  2x
A|--2--2--2--2--2--2--2--2--2--2--4--5--------------------------------------------
E|--------------------------------------0--0--0--0--0--0--0--0--0--0--0--0--0--3--

Pre-Chorus
G|-----------------------------
D|-----------------------------
A|-----------7-----7-----------
E|---2/7--------------9--9--8--

Breakout Screams
G|--------------------------------------------------------------------------------
D|--------------------------------------------------------------------------------
A|--------------4--4-----------------------------------4--4--7--7--7-----7--9--7--
E|--7--7--5--5--------0--0--0--0--0--0-----7--7--5--5-----------------------------

G|--------------------------------------------------------9-----9--
D|-----------------------------------------------------9-----9-----
A|--------------4--4--7--7--7-----------------4--4--7--------------
E|--7--7--5--5--------------------7--7--5--5-----------------------

G|-----------------------------11----11-------------------------------11----11----
D|--------------------------11----11----11-------------------------------11----11-   2x
A|--------------4--4--------------------------------------4--4--------------------
E|--7--7--5--5-----------0--------------------7--7--5--5--------0--0--------------

Ending
G|--------------------------------------------------------9-----9--
D|-----------------------------------------------------9-----9-----
A|--------------4--4--7--7--7-----------------4--4--7--------------
E|--7--7--5--5--------------------7--7--5--5-----------------------

G|--------------------------
D|--------------------------
A|--------------4--4--------
E|--7--7--5--5--------0--0--
tabs and chords, guitar tabs, music transcription, music technology, deep learning, music information retrieval, transcribe into tabs & chords, chordify, music renditions, songsterr, reverbnation, tabulature, bollywood chords, ultimate guitar, yousician, guitar lessons, acoustic guitar, electric guitar, guitar tuner, 911 tabs