Bass Tabs for Foo Fighters - Walk

Foo Fighters - Walk

Intro (Half-time)
G|-----------------------------------------------------------------------------------------------
D|-----------------------------------------------------------------------------------------------
A|--0--0--0--0--0--0--0--0--------------------------2--2--2--2--2--2--2--5--5--5--5--5--5--5--5--
E|--------------------------0--0--0--0--0--0--0--0-----------------------------------------------

G|--------------------------
D|--------------------------
A|--5--5--7--7--8--8--10-10-
E|--------------------------

Pre-Verse
G|--------------------------------------------------------
D|--------------------------------------------------------
A|--0--0--0--0--0--0--0--0--0--0--0--0--0--0--0--0--0--0--
E|--------------------------------------------------------

Verse & Chorus
G|--------------------------------------------------------------
D|--------------------------------------------------------------
A|--0--0--0--0--0--0--0--0--0--0--0-----------------------------
E|-----------------------------------0--0--0--0--0--0--0--0--0--

G|--------------------------------------------------------------
D|--------------------------------------------------------------
A|--2--2--2--2--2--2--2--2--2--2--5--5--5--5--5--5--5--5--5--5--
E|--------------------------------------------------------------

Variation
G|-----------------------------------------------------
D|-----------------------------------------------------
A|--5--5--5--5--5--7--7--7--7--8--8--8--8--5--5--5--5--
E|-----------------------------------------------------

Bridge
G|-----------------------------------------------------------------
D|-----------------------------------------------------------------
A|--0--0--0--0--0--0--0--0--0--0--0--0--0--------------------------
E|-----------------------------------------0--0--0--0--0--0--0--0--

G|-----------------------------------------------------------------------------
D|-----------------------------------------------------------------------------
A|--------------------------5--5--5--5--5--5--5--3--3--3--3--3--3--2--2--2--2--
E|--2--2--2--2--2--2--2--2-----------------------------------------------------

Ending
G|--------------------------------------------------------
D|--------------------------------------------------------  2x
A|--5--5--5--5--3--3--3--3-----------------------5--5--5--
E|--------------------------1--1--1--3--3--3--3-----------

G|-----------------------------------------------------------------
D|-----------------------------------7--7--7--7--7--7--7--7--7-----
A|-----------------------------------------------------------------
E|--5--5--5--5--5--5--5--5--5--5--5------------------------------5\
tabs and chords, guitar tabs, music transcription, music technology, deep learning, music information retrieval, transcribe into tabs & chords, chordify, music renditions, songsterr, reverbnation, tabulature, bollywood chords, ultimate guitar, yousician, guitar lessons, acoustic guitar, electric guitar, guitar tuner, 911 tabs