Guitar Tabs for Fingerstyle1

(/) Slide Up  (\) Slide Down  (h) Hammer On  (p) Pull Off  (b) Bend (r) Release (v) Vibrato (x) Muted

Tabs for Song : 
BPM : 130




Song lyrics here 
E|-----------10----------10----------9-----------9-----------7-----------7-----------7-----------9--
B|--------0-----------0-----------0-----------0-----------0-----------0-----------0-----------0-----
G|-----11----------11----------9-----------9-----------7-----------7-----------7-----------9--------
D|--9-----------9-----------7-----------7-----------5-----------5-----------5-----------7-----------
A|--------------------------------------------------------------------------------------------------
E|--------------------------------------------------------------------------------------------------

E|-----------10----------10----------9-----------9-----------7-----------7-----------7-----------9--
B|--------0-----------0-----------0-----------0-----------0-----------0-----------0-----------0-----
G|-----11----------11----------9-----------9-----------7-----------7-----------7-----------9--------
D|--9-----------9-----------7-----------7-----------5-----------5-----------5-----------7-----------
A|--------------------------------------------------------------------------------------------------
E|--------------------------------------------------------------------------------------------------

E|-----------10----------0-----------9-----------0-----------7-----------0-----------7-----------0--
B|--------0-----------0-----------0-----------0-----------0-----------0-----------0-----------0-----
G|-----11----------11----------9-----------9-----------7-----------7-----------7-----------7--------
D|--9-----------9-----------7-----------7-----------5-----------5-----------5-----------5-----------
A|--------------------------------------------------------------------------------------------------
E|--------------------------------------------------------------------------------------------------

E|-----------10----------0-----------9-----------0-----------7-----------0-----------7-----------0--
B|--------0-----------0-----------0-----------0-----------0-----------0-----------0-----------0-----
G|-----11----------11----------9-----------9-----------7-----------7-----------7-----------7--------
D|--9-----------9-----------7-----------7-----------5-----------5-----------5-----------5-----------
A|--------------------------------------------------------------------------------------------------
E|--------------------------------------------------------------------------------------------------

E|-----------2-----------------------0-----------0-----------0-----------0-----------0-----------0--
B|--------3------------3/8--------8-----------0-----------10----------10----------10----------10----
G|-----2-----------2-----------0-----------0-----------7-----------7-----------7-----------7--------
D|--0-----------0-----------------------------------------------------------------------------------
A|--------------------------------------------------9-----------9-----------10----------10----------
E|--------------------------0-----------0-----------------------------------------------------------

E|-----------2-----------------------0-----------0-----------0-----------0-----------0-----------0--
B|--------3------------3/8--------8-----------0-----------0-----------0-----------0-----------0-----
G|-----2-----------2-----------0-----------0-----------7-----------7-----------6-----------6--------
D|--0-----------0-----------------------------------------------------------------------------------
A|--------------------------------------------------------------------------0-----------0-----------
E|--------------------------0-----------0-----------7-----------7-----------------------------------

E|-----------2-----------------------0-----------0-----------0-----------0-----------0-----------0--
B|--------3------------3/8--------8-----------0-----------0-----------0-----------0-----------0-----
G|-----2-----------2-----------0-----------0-----------7-----------7-----------6-----------6--------
D|--0-----------0-----------------------------------------------------------------------------------
A|--------------------------------------------------------------------------0-----------0-----------
E|--------------------------0-----------0-----------7-----------7-----------------------------------

E|-----------10----------0--------------
B|--------0-----------0-----------------
G|-----11----------11----------------4--
D|--9-----------9--------------------4--
A|-----------------------------------2--
E|--------------------------------------

tabs and chords, guitar tabs, music transcription, music technology, deep learning, music information retrieval, transcribe into tabs & chords, chordify, music renditions, songsterr, reverbnation, tabulature, bollywood chords, ultimate guitar, yousician, guitar lessons, acoustic guitar, electric guitar, guitar tuner, 911 tabs