Bass Tabs for Farda

(/) Slide Up  (\) Slide Down  (h) Hammer On  (p) Pull Off  (b) Bend (r) Release (v) Vibrato (x) Muted

Tabs for Song : 
BPM : 96

Intro
G|--------------------------------------------------
D|--------------------------------------------------
A|--------------------------------------------------
E|--0--0--6--7--0--0--6--7--0--0--6--7--8--8--7--7--

Verse I (x8)
G|--------------------------------------------------
D|--------------------------------------------------
A|--------------------------------------5--5--7--7--
E|--0--0--6--7--0--0--6--7--0--0--6--7--------------

Chorus (x4)
G|--------------------------------------
D|--------------------------------------
A|--0--0--------------0--0--------------
E|--------3--3--0--0--------3--3--7--7--
Bridge to Verse II
G|--------------------
D|--------------------
A|--------------------
E|--8--8--6--6--7--7--

to end of verse II
G|--------------
D|--------------
A|--------------
E|--0--0--6--7--
Bridge to Chorus (x2)
G|--------------------------
D|--------------------------
A|--------------------------
E|--8--8--7--7--6--6--7--7--
Solo
G|--------------------------
D|--------------------------
A|--------------------------
E|--0--0--6--7--0--0--6--7--

Use manual mode to free up cursor. Paste any tab in acousterr tab maker and we'll play it !!!
tabs and chords, guitar tabs, music transcription, music technology, deep learning, music information retrieval, transcribe into tabs & chords, chordify, music renditions, songsterr, reverbnation, tabulature, bollywood chords, ultimate guitar, yousician, guitar lessons, acoustic guitar, electric guitar, guitar tuner, 911 tabs