Bass Tabs for Exs And Hoes

(/) Slide Up  (\) Slide Down  (h) Hammer On  (p) Pull Off  (b) Bend (r) Release (v) Vibrato (x) Muted

Tabs for Song : Ex's and Oh's

Notes for 0 to 21
G|--3--------1--3--
D|--------3--------
A|-----------------
E|-----------------

G|--------------1--1--1--1--3--3--3--3--------------------------1--1--1--1--------------
D|--1--1--1--1--------------------------3--3--3--3--1--1--1--1--------------1--1--1--1--
A|--------------------------------------------------------------------------------------
E|--------------------------------------------------------------------------------------



Song lyrics here
G|--
D|--
A|--
E|--

Paste any tab in acousterr's tab maker and we'll play it !!!
Now supports capo and sound effects for vibrato/pull-off/hammer/bends/mutes etc !!! Checkout help section
tabs and chords, guitar tabs, music transcription, music technology, deep learning, music information retrieval, transcribe into tabs & chords, chordify, music renditions, songsterr, reverbnation, tabulature, bollywood chords, ultimate guitar, yousician, guitar lessons, acoustic guitar, electric guitar, guitar tuner, 911 tabs